Oops, an error
Loading. Please wait.
We have an official My Curse tab made by UG professional guitarists. Check out the tab »
×
6,172 views 1 this week
2 commentsread comments
1 2 3 4 5
x 6
add to favorites
×
Save as Personal and add changes to this tab that will be seen only by you. Learn more ›
×
You can save this tab as Personal to edit and correct it or add notes. All changes will be seen only by you. Learn more »
launch autoscroll
font size
0
reset
guitar tuner
backing track
0:00
0:00
edit
Autoscroll
slow
fast
+/-
esc
set tempo
stop
Author
Difficulty
                       KILLSWITCH ENGAGE : MY CURSE

TABBED BY: CORY KENNEY
E-MAIL: thekenneys7@yahoo.com
TUNING (LOW TO HIGH) C G C F
~ = VIBRATO
(0) ALL NOTES IN PARENTHESES NEED TO RING OUT
/ SLIDE UP
\ SLIDE DOWN

FIGURE 1(INTRO) REPEAT ONCE

---------------------------------------------------------------------------|
---------------------8---------------------------------------5-------------|
---------------------------------------------------------------------------|
-8--8--8--8--8--8----------------------5--5--5--5--5--5--------------------|

---------------------------------------------------------------------------|
---------------------------------------------------------------------------|
----------------------5--------------------5-------------------------------|
-0--0--0--0--0--0----------------------------------------------------------|
                                                  END FIGURE 1


---------------------------------------------------------------------------|
---------------------------------------------------------------------------|
---------------------------------------------3-----------------------------|
--0--------------------0-----------------/5-----5---4---3---0---3---5------|


BASS FIGURE 2

----------------------------------------------------------------------------|
----------------------------------------------------------------------------|
-5-----3------------------------------5--------------5-----3----------------|
---0-0---0-0-/6-0-0-5-0-0-3-0-0-0-/7----7-6-5-0-3-5----0-0---0-0-/6-0-0-5-0-|

THIS IS FIGURE 2 CONTINUED BECAUSE IT WOULDN'T FIT.

-----------------------------|
-----------------------------|
---------------3-------------|
-0-3-0-0-0-/5----5-4-3-0-3-5-|
END FIGURE 2

 1. I WATCHED YOU WALK AWAY      HELPLESS WITH NOTHIN TO SAY     YEAH
 2. YOUR SILENCE    HAUNTS ME      BUT STILL I  HUNGER     FOR       YOU

 THIS      IS        MY      CURSE     THE LONGING    THIS      IS
 THIS      IS        MY      CURSE     THE YEARNING   THIS      IS
 THIS      IS        MY      CURSE     THE WANTING    THIS      IS
 THIS      IS        MY      CURSE     THE NEEDING    THIS      IS

---------------------------------------------------------------------------|
---------------------------------------------------------------------------|
---------------------------------------------------------------------------|
-0-0-(0)--0-0-(0)--0-0-(0)--0-0-15----3-0-0-0-0-0-----0-0-(0)--0-0-(0)-----|
LET NOTES IN PARENTHESES RING


REPEAT EVERYTHING BEFORE THE BAR ONCE BEFORE MOVING ON.
---------------------------|-----------------------------------------------|
---------------------------|-----------------------------------------------|
--------------5------------|-------------5---------------------------------|
--3-0-0-0-/7-----7-6-5-0-3-|--7-6-5-0-/7----7-6-5-0------------------------|

        THERE  IS   LOVE                  BURNING TO FIND YOU
 WILL   YOU         WAIT    FOR    ME                     WILL YOU BE

                                  AND STILL I     WANT
                                  BUT STILL I     WANT


---------------------------------------------------------------------------|
-----------------------(8)-----(8)---------------------------------(5)-----|
----------(8)---(8)-------------------------(5)---(5)----(5)---------------|
---(8)--------------------------------(5)----------------------------------|


---------------------------------------------------------------------------|
---------------------------------------------------------------------------|
-------------------------------5----------5----------5----------5----------|
--------------3------------------------------------------------------------|

                      DYING                                   INSIDE


---------------------------------------------------------------------------|
---------------------------------------------------------------------------|
---------------------------------------------------------------------------|
-8--8--8--8--8--8--8--8--8--8--8----------5--5--5--5--5--5--5--5--5--5--5--|

                      THESE                                   WALLS


---------------------------------------------------------------------------|
---------------------------------------------------------------------------|
---------------------------------------------------------------------------|
-0--0--0--0--0--0--0--0--0--0--0----------0--0--0--0--0--0--0--0--0--0--0--|

  AND  I  SEE  YOUR   FACE                                       IN THESE
  AND  I  SEE  YOUR                FACE

 TEARS               IN    THESE   TEARS


---------------------------------------------------------------------------|
---------------------------------------------------------------------------|
--5-----------5------------------------------------------------------------|
-----0---0--------------0-----------0-----------0-----------0-------/17\---|

OUTRO REPEAT ONCE AND FADE

   THERE   IS   LOVE                      THERE    IS             LOVE


---------------------------------------------------------------------------|
---------------------------------------------------------------------------|
--------------------------------------------------5------(5)-------5--(5)/5|
---8--------8--------5-------5~~~~~(5)-------0------------------0----------|


ENJOY

            
            
Suggest correction
Creating personal tab
Creating personal tab
You can edit any tab online and save it as your Personal.

You can edit, replace or remove any tab part or add personal notes – all changes will be seen only by you.

Personal tabs can be accessed anytime from any device, even offline.
Learn more »
comments
print report bad tab
2 comments total.
-1 reply
Futilaty 10 Feb 05, 2008 12:05 PM

the chorus is minorly wrong...
its
F|--------------------------------|
C|--------------------------------|
G|------8-------5-------5-------5-|
C|888888--555555--000000--000000--|

Mike D'Antonio tabbed it out himself in the January 2007 issue of Bass Guitar Magazine

0 reply
SAS bassist 135 Apr 19, 2009 10:22 PM

Very good tab, love how you added the words into it too
Although, it does get a little hard trying to follow them as the song progresses

guest
You may want to rate the tab now too:
select rating
Wanna post a correction for this tab? Suggest correction