Oops, an error
Loading. Please wait.

My Curse Tab

version 3
version 3
681,394 views 687 this week
108 commentsread comments
1 2 3 4 5
excellent!
x 352
add to favorites
launch autoscroll
font size
0
reset
how to read this tab
guitar tuner
Tab Pro tools
  • play this tab
  • loop segment
  • change instrument
  • show fretboard
  • metronome
×
Best way to learn
"My Curse"
Autoscroll
slow
fast
+/-
esc
set tempo
stop
Contributor
Difficulty
Tuning
intermediate
C G C F A D
Tabbed by: SICfreak91
Tuning: Drop C (C G C F A D)


[Intro]

(clean with some delay) Part A

Guitar 1: let ring
D|---------------------------------------------------------------|
A|--------10----------10------------6----------6-----------------|
F|-----10----8----10-----8------5-----5----5-----5---------------|
C|---8---8------8----8--------8---8------8---8-------------------|
G|---------------------------------------------------------------|
C|---------------------------------------------------------------|

Guitar 2: strum
D|---------------------------------------------------------------|
A|--10~--------------------6~------------------------------------|
F|--10~--------------------5~------------------------------------|
C|--8~---------------------8~------------------------------------|
G|--8~---------------------5~------------------------------------|
C|--8~---------------------5~------------------------------------|

Gtr.1 
D|-------------------0-----------------------0-------------------|
A|--------6------------6----------6------------6-----------------|
F|-----5----5----5------------5-----5----5-----------------------|
C|---7--7------7---7--------7---7------7---7---------------------|
G|---------------------------------------------------------------|
C|---------------------------------------------------------------|

Gtr.2 
D|---------------------------------------------------------------|
A|---6~---------------------6~-----------------------------------|
F|---5~---------------------5~-----------------------------------|
C|---7~---------------------7~-----------------------------------|
G|---5~---------------------5~-----------------------------------|
C|---0~---------------------0~-----------------------------------|


Repeat all part A once:


Guitar 1: let ring
D|---------------------------------------------------------------|
A|--------10----------10------------6----------6-----------------|
F|-----10----8----10-----8------5-----5----5-----5---------------|
C|---8---8------8----8--------8---8------8---8-------------------|
G|---------------------------------------------------------------|
C|---------------------------------------------------------------|

Guitar 2: strum
D|---------------------------------------------------------------|
A|--10~--------------------6~------------------------------------|
F|--10~--------------------5~------------------------------------|
C|--8~---------------------8~------------------------------------|
G|--8~---------------------5~------------------------------------|
C|--8~---------------------5~------------------------------------|

Gtr.1 
D|-------------------0-----------------------0-------------------|
A|--------6------------6----------6------------6-----------------|
F|-----5----5----5------------5-----5----5-----------------------|
C|---7--7------7---7--------7---7------7---7---------------------|
G|---------------------------------------------------------------|
C|---------------------------------------------------------------|

Gtr.2 
D|---------------------------------------------------------------|
A|--6~--------------------6~-------------------------------------|
F|--5~--------------------5~-------------------------------------|
C|--7~--------------------7~-------------------------------------|
G|--5~--------------------5~-------------------------------------|
C|--0~--------------------0~-------------------------------------|


Part B (distorted)

Gtr.1 
D|---------------------------------------------------------------|
A|--------10--------------10---------------6------------6--------|
F|---10--------10----10--------10------5-------5----5-------5----|
C|-8----8----8-----8----8----8-------8---8---8----8---8---8------|
G|---------------------------------------------------------------|
C|---------------------------------------------------------------|
PM.    .    .     .    .    .       .   .   .    .   .   .

Gtr. 2:
D|---------------------------------------------------------------|
A|----------------10~-------\----------------------6~---------\--|
F|----------------10~-------\----------------------5~---------\--|
C|----------------8~--------\----------------------8~---------\--|
G|----------------8~--------\----------------------5~---------\--|
C|-8-8-8-8-8-8----8~--------\-------5-5-5-5-5-5----5~---------\--|
PM. . . . . .                      . . . . . .


Gtr.1 
D|--------------------0---------------------------0--------------|
A|-------6----------------6----------6----------------6----------|
F|---5-------5----5--------------5-------5----5------------------|
C|-7---7---7----7---7---7------7---7---7----7---7---7------------|
G|---------------------------------------------------------------|
C|---------------------------------------------------------------|
PM.   .   .    .   .   .      .   .   .    .   .   .

Gtr.2 
D|---------------------------------------------------------------|
A|---------------------------------------------------------------|
F|----------------7~--------\------------------7~----------\-----|
C|----------------7~--------\------------------7~----------\-----|
G|----------------5~--------\------------------5~----------\-----|
C|-0-0-0-0-0-0-----------------0-0-0-0-0-0-----------------------|
PM. . . . . .                 . . . . . .   


Part C (distorted)

Gtr.1 
D|---------------------------------------------------------------|
A|---------------------------------------------------------------|
F|---------------------------------------------------------------|
C|-5-----3-------------------------------------------------------|
G|-5-----3------------------------------5------------------------|
C|---0-0---0-0-/6-0-0-5-0-0-3p0-0-0--/7---7-6-5-0-3-5------------|

(Gtr.2 comes in)
Gtr.1 
D|---------------------------------------------------------------|
A|---------------------------------------------------------------|
F|---------------------------------------------------------------|
C|-5-----3-------------------------------------------------------|
G|-5-----3------------------------------3------------------------|
C|---0-0---0-0-/6-0-0-5-0-0-3p0-0-0--/5---5-4-3-0-3*v------------|

Gtr.2 
D|---------------------------------------------------------------|
A|-3~---------------3~-------------------------------------------|
F|-2~---------------2~-------------------------------------------|
C|-0~---------------0~-------------------------------------------|
G|-0~---------------0~------------------3------------------------|
C|-0~---------------0~---------------/5---5-4-3-0-3*v------------|


[Verse]

(distorted)

Both Guitars:
D|---------------------------------------------------------------|
A|---------------------------------------------------------------|
F|---------------------------------------------------------------|
C|-5-----3-------------------------------------------------------|
G|-5-----3------------------------------5------------------------|  
C|---0-0---0-0-/6-0-0-5-0-0-3p0-0-0--/7---7-6-5-0-3-5------------|  
                                                                   x3 both 
D|---------------------------------------------------------------|  
A|---------------------------------------------------------------|  
F|---------------------------------------------------------------|
C|-5-----3-------------------------------------------------------|
G|-5-----3------------------------------3------------------------|
C|---0-0---0-0-/6-0-0-5-0-0-3p0-0-0--/5---5-4-3-0-3*v------------|


[Pre-Chorus]

Both Guitars:
D|-----------------------------------------------------------------------------|
A|-----------------------------------------------------------------------------|
F|-----------------------------------------------------------------------------|
C|-----------------------------------------------------------------------------|
G|-----------------------------------------------------------------------------|
C|-0-0-0---0-0-0---0-0-0---0-0-0---3p0-0-0--0-0---3p0-0-0--0-0-----------------|
PM . . .   . . .   . . .   . . .       . .  . .       . .  . . 

D|-----------------------------------------------------------------------------|
A|-----------------------------------------------------------------------------|
F|-----------------------------------------------------------------------------|
C|-----------------------------------------------------------------------------|
G|--------------------------------------------5--------------------------------|
C|-0-0-0---0-0-0---0-0-0---0-0-0---3p0-0-0-/7---7-6-5-0-3*v--------------------|
PM . . .   . . .   . . .   . . .       . . 

D|-----------------------------------------------------------------------------|
A|-----------------------------------------------------------------------------|
F|-----------------------------------------------------------------------------|
C|-----------------------------------------------------------------------------|
G|-----------------------------------------------------------------------------|
C|-0-0-0---0-0-0---0-0-0---0-0-0---3p0-0-0--0-0---3p0-0-0--0-0-----------------|
PM . . .   . . .   . . .   . . .       . .  . .       . .  . .    

D|-----------------------------------------------------------------------------|
A|-----------------------------------------------------------------------------|
F|-----------------------------------------------------------------------------|
C|-----------------------------------------------------------------------------|
G|--------------------------------------------5------------5-------------------|
C|-0-0-0---0-0-0---0-0-0---0-0-0---3p0-0-0-/7---7-6-5-0-/7---7-6-5-0-----------|
PM . . .   . . .   . . .   . . .       . . 


[Chorus]

Gtr.1 
D|---------------------------------------------------------------|
A|--------10--------------10---------------6------------6--------|
F|---10--------10----10--------10------5-------5----5-------5----|
C|-8----8----8-----8----8----8-------8---8---8----8---8---8------|
G|---------------------------------------------------------------|
C|---------------------------------------------------------------|
PM.    .    .     .    .    .       .   .   .    .   .   .

Gtr. 2:
D|---------------------------------------------------------------|
A|----------------10~-------\----------------------6~---------\--|
F|----------------10~-------\----------------------5~---------\--|
C|----------------8~--------\----------------------8~---------\--|
G|----------------8~--------\----------------------5~---------\--|
C|-8-8-8-8-8-8----8~--------\-------5-5-5-5-5-5----5~---------\--|
PM. . . . . .                      . . . . . .
-----
Gtr.1 
D|--------------------0---------------------------0--------------|
A|-------6----------------6----------6----------------6----------|
F|---5-------5----5--------------5-------5----5------------------|
C|-7---7---7----7---7---7------7---7---7----7---7---7------------|
G|---------------------------------------------------------------|
C|---------------------------------------------------------------|
PM.   .   .    .   .   .      .   .   .    .   .   .

Gtr.2 
D|---------------------------------------------------------------|
A|---------------------------------------------------------------|
F|----------------7~--------\------------------7~----------\-----|
C|----------------7~--------\------------------7~----------\-----|
G|----------------5~--------\------------------5~----------\-----|
C|-0-0-0-0-0-0-----------------0-0-0-0-0-0-----------------------|
PM. . . . . .                 . . . . . . 

Repeat Chorus once:


Gtr.1 
D|---------------------------------------------------------------|
A|--------10--------------10---------------6------------6--------|
F|---10--------10----10--------10------5-------5----5-------5----|
C|-8----8----8-----8----8----8-------8---8---8----8---8---8------|
G|---------------------------------------------------------------|
C|---------------------------------------------------------------|
PM.    .    .     .    .    .       .   .   .    .   .   .

Gtr. 2:
D|---------------------------------------------------------------|
A|----------------10~-------\----------------------6~---------\--|
F|----------------10~-------\----------------------5~---------\--|
C|----------------8~--------\----------------------8~---------\--|
G|----------------8~--------\----------------------5~---------\--|
C|-8-8-8-8-8-8----8~--------\-------5-5-5-5-5-5----5~---------\--|
PM. . . . . .                      . . . . . .
-----
Gtr.1 
D|--------------------0---------------------------0--------------|
A|-------6----------------6----------6----------------6----------|
F|---5-------5----5--------------5-------5----5------------------|
C|-7---7---7----7---7---7------7---7---7----7---7---7------------|
G|---------------------------------------------------------------|
C|---------------------------------------------------------------|
PM.   .   .    .   .   .      .   .   .    .   .   .

Gtr.2 
D|---------------------------------------------------------------|
A|---------------------------------------------------------------|
F|----------------7~--------\------------------7~----------\-----|
C|----------------7~--------\------------------7~----------\-----|
G|----------------5~--------\------------------5~----------\-----|
C|-0-0-0-0-0-0-----------------0-0-0-0-0-0-----------------------|
PM. . . . . .                 . . . . . . 


[Verse 2]

Repeat Verse x2

Both Guitars:
D|---------------------------------------------------------------|
A|---------------------------------------------------------------|
F|---------------------------------------------------------------|
C|-5-----3-------------------------------------------------------|
G|-5-----3------------------------------5------------------------|  
C|---0-0---0-0-/6-0-0-5-0-0-3p0-0-0--/7---7-6-5-0-3-5------------|  
                                                                   x2 both 
D|---------------------------------------------------------------|  
A|---------------------------------------------------------------|  
F|---------------------------------------------------------------|
C|-5-----3-------------------------------------------------------|
G|-5-----3------------------------------3------------------------|
C|---0-0---0-0-/6-0-0-5-0-0-3p0-0-0--/5---5-4-3-0-3*v------------|


[Pre-Chorus]

Both Guitars:
D|-----------------------------------------------------------------------------|
A|-----------------------------------------------------------------------------|
F|-----------------------------------------------------------------------------|
C|-----------------------------------------------------------------------------|
G|-----------------------------------------------------------------------------|
C|-0-0-0---0-0-0---0-0-0---0-0-0---3p0-0-0--0-0---3p0-0-0--0-0-----------------|
PM . . .   . . .   . . .   . . .       . .  . .       . .  . . 

D|-----------------------------------------------------------------------------|
A|-----------------------------------------------------------------------------|
F|-----------------------------------------------------------------------------|
C|-----------------------------------------------------------------------------|
G|--------------------------------------------5--------------------------------|
C|-0-0-0---0-0-0---0-0-0---0-0-0---3p0-0-0-/7---7-6-5-0-3*v--------------------|
PM . . .   . . .   . . .   . . .       . . 

D|-----------------------------------------------------------------------------|
A|-----------------------------------------------------------------------------|
F|-----------------------------------------------------------------------------|
C|-----------------------------------------------------------------------------|
G|-----------------------------------------------------------------------------|
C|-0-0-0---0-0-0---0-0-0---0-0-0---3p0-0-0--0-0---3p0-0-0--0-0-----------------|
PM . . .   . . .   . . .   . . .       . .  . .       . .  . .    

D|-----------------------------------------------------------------------------|
A|-----------------------------------------------------------------------------|
F|-----------------------------------------------------------------------------|
C|-----------------------------------------------------------------------------|
G|--------------------------------------------5------------5-------------------|
C|-0-0-0---0-0-0---0-0-0---0-0-0---3p0-0-0-/7---7-6-5-0-/7---7-6-5-0-----------|
PM . . .   . . .   . . .   . . .       . . 


[Chorus]

Gtr.1 
D|---------------------------------------------------------------|
A|--------10--------------10---------------6------------6--------|
F|---10--------10----10--------10------5-------5----5-------5----|
C|-8----8----8-----8----8----8-------8---8---8----8---8---8------|
G|---------------------------------------------------------------|
C|---------------------------------------------------------------|
PM.    .    .     .    .    .       .   .   .    .   .   .

Gtr. 2:
D|---------------------------------------------------------------|
A|----------------10~-------\----------------------6~---------\--|
F|----------------10~-------\----------------------5~---------\--|
C|----------------8~--------\----------------------8~---------\--|
G|----------------8~--------\----------------------5~---------\--|
C|-8-8-8-8-8-8----8~--------\-------5-5-5-5-5-5----5~---------\--|
PM. . . . . .                      . . . . . .
-----
Gtr.1 
D|--------------------0---------------------------0--------------|
A|-------6----------------6----------6----------------6----------|
F|---5-------5----5--------------5-------5----5------------------|
C|-7---7---7----7---7---7------7---7---7----7---7---7------------|
G|---------------------------------------------------------------|
C|---------------------------------------------------------------|
PM.   .   .    .   .   .      .   .   .    .   .   .

Gtr.2 
D|---------------------------------------------------------------|
A|---------------------------------------------------------------|
F|----------------7~--------\------------------7~----------\-----|
C|----------------7~--------\------------------7~----------\-----|
G|----------------5~--------\------------------5~----------\-----|
C|-0-0-0-0-0-0-----------------0-0-0-0-0-0-----------------------|
PM. . . . . .                 . . . . . . 

Repeat Chorus:


Gtr.1 
D|---------------------------------------------------------------|
A|--------10--------------10---------------6------------6--------|
F|---10--------10----10--------10------5-------5----5-------5----|
C|-8----8----8-----8----8----8-------8---8---8----8---8---8------|
G|---------------------------------------------------------------|
C|---------------------------------------------------------------|
PM.    .    .     .    .    .       .   .   .    .   .   .

Gtr. 2:
D|---------------------------------------------------------------|
A|----------------10~-------\----------------------6~---------\--|
F|----------------10~-------\----------------------5~---------\--|
C|----------------8~--------\----------------------8~---------\--|
G|----------------8~--------\----------------------5~---------\--|
C|-8-8-8-8-8-8----8~--------\-------5-5-5-5-5-5----5~---------\--|
PM. . . . . .                      . . . . . .
-----
Gtr.1 
D|--------------------0---------------------------0--------------|
A|-------6----------------6----------6----------------6----------|
F|---5-------5----5--------------5-------5----5------------------|
C|-7---7---7----7---7---7------7---7---7----7---7---7------------|
G|---------------------------------------------------------------|
C|---------------------------------------------------------------|
PM.   .   .    .   .   .      .   .   .    .   .   .

Gtr.2 
D|---------------------------------------------------------------|
A|---------------------------------------------------------------|
F|----------------7~--------\------------------7~----------\-----|
C|----------------7~--------\------------------7~----------\-----|
G|----------------5~--------\------------------5~----------\-----|
C|-0-0-0-0-0-0-----------------0-0-0-0-0-0-----------------------|
PM. . . . . .                 . . . . . . 


[Interlude]

(light dist. and delay) 
Tried to time Gtr.1&2
Gtr.1
D|---------------------------------------------------------------|
A|---------------------------------------------------------------|
F|-15--15--15----15--15--15--15-----12--12-12--------------------|
C|-0---0---0-----0---0---0---0------0---0--0---------------------|
G|-13--13--13----13--13--13--13-----10--10-10--------------------|
C|---------------------------------------------------------------|

Gtr.2
D|---------------------------------------------------------------|
A|---------------------------------------------------------------|
F|-3-------3~----3---3-------3~--3--5--7---7-7--7----------------|
C|-x-------x~----x---x-------x~--x--x--x---x-x--x----------------|
G|-1-------1~----1---1-------1~--1--3--5---5-5--5----------------|
C|---------------------------------------------------------------|

D|---------------------------------------------------------------|
A|---------------------------------------------------------------|
F|-14-15~-------14---14---14--14----14---14---14--14----14-------|
C|-0--0---------0----0----0---0-----0----0----0---0-----0--------|
G|-12-13~-------12---12---12--12----12---12---12--12----12-------|
C|---------------------------------------------------------------|

D|---------------------------------------------------------------|
A|---------------------------------------------------------------|
F|-7------7-7---7----7--------7--7--7----7----7-----7---7--------|
C|-x------x-x---x----x--------x--x--x----x----x-----x---x--------|
G|-5------5-5---5----5--------5--5--5----5----5-----5---5--------|
C|---------------------------------------------------------------|

D|---------------------------------------------------------------|
A|---------------------------------------------------------------|
F|-10----10--10--10-9---9---9--9---9~----------------------------|
C|-0-----0---0---0--0---0---0--0---0~----------------------------|
G|-8-----8---8---8--7---7---7--7---7~----------------------------|
C|---------------------------------------------------------------|

D|---------------------------------------------------------------|
A|---------------------------------------------------------------|
F|-7---------7---7--7--------7-7--7~-----------------------------|
C|-0---------0---0--0--------0-0--0~-----------------------------|
G|-0---------0---0--0--------0-0--0~-----------------------------|
C|---------------------------------------------------------------|

Repeat all Interlude:


Gtr.1
D|---------------------------------------------------------------|
A|---------------------------------------------------------------|
F|-15--15--15----15--15--15--15-----12--12-12--------------------|
C|-0---0---0-----0---0---0---0------0---0--0---------------------|
G|-13--13--13----13--13--13--13-----10--10-10--------------------|
C|---------------------------------------------------------------|

Gtr.2
D|---------------------------------------------------------------|
A|---------------------------------------------------------------|
F|-3-------3~----3---3-------3~--3--5--7---7-7--7----------------|
C|-x-------x~----x---x-------x~--x--x--x---x-x--x----------------|
G|-1-------1~----1---1-------1~--1--3--5---5-5--5----------------|
C|---------------------------------------------------------------|

D|---------------------------------------------------------------|
A|---------------------------------------------------------------|
F|-14-15~-------14---14---14--14----14---14---14--14----14-------|
C|-0--0---------0----0----0---0-----0----0----0---0-----0--------|
G|-12-13~-------12---12---12--12----12---12---12--12----12-------|
C|---------------------------------------------------------------|

D|---------------------------------------------------------------|
A|---------------------------------------------------------------|
F|-7------7-7---7----7--------7--7--7----7----7-----7---7--------|
C|-x------x-x---x----x--------x--x--x----x----x-----x---x--------|
G|-5------5-5---5----5--------5--5--5----5----5-----5---5--------|
C|---------------------------------------------------------------|

D|---------------------------------------------------------------|
A|---------------------------------------------------------------|
F|-10----10--10--10-9---9---9--9---9~----------------------------|
C|-0-----0---0---0--0---0---0--0---0~----------------------------|
G|-8-----8---8---8--7---7---7--7---7~----------------------------|
C|---------------------------------------------------------------|

D|---------------------------------------------------------------|
A|---------------------------------------------------------------|
F|-7---------7---7--7--------7-7--7~-----------------------------|
C|-0---------0---0--0--------0-0--0~-----------------------------|
G|-0---------0---0--0--------0-0--0~-----------------------------|
C|---------------------------------------------------------------|


[Chorus 3]

Both guitars
D|-----------------------------------------------------------------------------------|
A|-----------------------------------------------------------------------------------|
F|-----------------------10----------------------------------10----------------------|
C|--------------------------8\7---------------------------------8\7------------------|
G|------------------------------8\5p0-------------------------------8\5p0------------|
C|-8-8-8-8-8-8-8-8-8-8-8---------------5-5-5-5-5-5-5-5-5-5-5-------------------------|
PM . . . . . . . . . . .               . . . . . . . . . . . 
D|-----------------------------------------------------------------------------------|
A|-----------------------------------------------------------------------------------|
F|-----------------------10------------------------------------10-----10-------------|
C|--------------------------8\7-----------------------------------8\7----8\7---------|
G|------------------------------8\5p0------------------------------------------------|
C|-0-0-0-0-0-0-0-0-0-0-0---------------0-0-0-0-0-0-0-0-0-0-0-------------------------|
PM . . . . . . . . .                   . . . . . . . . . . .

Repeat Chorus 3 once:


Both guitars
D|-----------------------------------------------------------------------------------|
A|-----------------------------------------------------------------------------------|
F|-----------------------10----------------------------------10----------------------|
C|--------------------------8\7---------------------------------8\7------------------|
G|------------------------------8\5p0-------------------------------8\5p0------------|
C|-8-8-8-8-8-8-8-8-8-8-8---------------5-5-5-5-5-5-5-5-5-5-5-------------------------|
PM . . . . . . . . . . .               . . . . . . . . . . . 
D|-----------------------------------------------------------------------------------|
A|-----------------------------------------------------------------------------------|
F|-----------------------10------------------------------------10-----10-------------|
C|--------------------------8\7-----------------------------------8\7----8\7---------|
G|------------------------------8\5p0------------------------------------------------|
C|-0-0-0-0-0-0-0-0-0-0-0---------------0-0-0-0-0-0-0-0-0-0-0-------------------------|
PM . . . . . . . . .                   . . . . . . . . . . .


[Breakdown]

Both Guitars:
D|---------------------------------------------------------------|
A|--------------10~---------------------6~-----------------------|
F|--------------10~---------------------5~-----------------------|
C|-------8~-----8~---------------8~-----8~-----------------------|
G|-8------------8~---------5------------5~-----------------------|
C|-8------------8~---------5------------5~-----------------------|

D|-------------------0~----------------------0~------------------|
A|--------------6~----------------------6~-----------------------|
F|--------------5~----------------------5~-----------------------|
C|-------7~-----7~---------------7~-----7~-----------------------|
G|-5------------5~---------5------------5~-----------------------|
C|-0------------0~---------0------------0~-----------------------|

Repeat Breakdown:


Both Guitars:
D|---------------------------------------------------------------|
A|--------------10~---------------------6~-----------------------|
F|--------------10~---------------------5~-----------------------|
C|-------8~-----8~---------------8~-----8~-----------------------|
G|-8------------8~---------5------------5~-----------------------|
C|-8------------8~---------5------------5~-----------------------|

D|-------------------0~----------------------0~------------------|
A|--------------6~----------------------6~-----------------------|
F|--------------5~----------------------5~-----------------------|
C|-------7~-----7~---------------7~-----7~-----------------------|
G|-5------------5~---------5------------5~-----------------------|
C|-0------------0~---------0------------0~-----------------------|


[Outro]

Gtr 1
               x6                                              x4
D|--------------||----------------------------------------------||
A|--------------||----------------------------------------------||
F|-10-----------||-------10-----10------------------------------||
C|----8\7-------||----------8\7----8\7--------------------------||
G|--------8\5p0-||----------------------------------------------||
C|--------------||----------------------------------------------||

Gtr.2

(Comes in after 2nd repeat of Gtr.1)

                 x6                                              x4
D|-----------------||----------------------------------------------||
A|-----------------||----------------------------------------------||
F|-14--------------||-------14-------14----------------------------||
C|----12\10--------||----------12\10----12\10----------------------||
G|----------12\8p0-||----------------------------------------------||
C|-----------------||----------------------------------------------||

Gtr.1
D|---------------------------------------------------------------|
A|---------------------------------------------------------------|
F|-10------10----------------------------------------------------|
C|----8\7-----8\7------------------------------------------------|
G|---------------------------------------------------------------|
C|---------------------------------------------------------------|

Gtr.2
D|---------------------------------------------------------------|
A|---------------------------------------------------------------|
F|-14------14----------------------------------------------------|
C|----12\10---12\10----------------------------------------------|
G|---------------------------------------------------------------|
C|---------------------------------------------------------------|

Repeat until fade



************************************

| x  Dead note
| p  Pull-off
| /  Slide up
| \  Slide down
| ~  Vibrato
| *  Pinch Harmonic
| v  Vibarto 
| PM Palm mute

************************************
comments
print report bad tab
108 comments total. Showing first comments. show 1 bad comment
+2 reply
Adam*The Chaos* wrote on December 22 2006, 03:09 pm

Watch the Guitar World lesson on YouTube for a better understanding of how to play this awesome song. Good tab non the less :)

+9 reply
Dark Star 777 wrote on January 6 2007, 01:48 am

dude this tab is awsome. but i also think u took this straight from guitar world. whatever though i dont care ive done that before too

I want to post or [tab]
guest
You may want to rate the tab now too:
select rating
Please do not post tabs as comments. Select "correction" instead!