Oops, an error
Loading. Please wait.
We have an official My Curse tab made by UG professional guitarists. Check out the tab »
×
13,445 views 18 this week
4 commentsread comments
1 2 3 4 5
x 11
add to favorites
×
Save as Personal and add changes to this tab that will be seen only by you. Learn more ›
×
You can save this tab as Personal to edit and correct it or add notes. All changes will be seen only by you. Learn more »
launch autoscroll
font size
0
reset
guitar tuner
backing track
0:00
0:00
edit
Autoscroll
slow
fast
+/-
esc
set tempo
stop
-------------------------------------------------------------------------------
                        My Curse - Killswitch Engage
-------------------------------------------------------------------------------

Tabbed By : Kergash
e-mail: h_bjerkg@live.no

Tuning: CGCF

I tabbed this song out by ear by using the bass track I found for it on youtube 
(http://www.youtube.com/watch?v=fhejPhdnwj8).
I know this is right because I've listened to the live recordings (especially from 
Download 2007, where the bass was higher than the guitar at some points, which confirmed 
for me that there was something off with the bass-tabs we have today.) I did my best, and I think 
this is quite perfect now, though if you hear something from the track that I've tabbed out wrong, 
please do comment. :)

Intro (which starts at 0:17 for bass):
F|---------------------------------------------------------------------------|
C|---------------------------------------------------------------------------|
G|--------------------------5r\0--------5r\0---------------------------------|
C|8888888r--5555555r--000000------000000-------------------------------------|x2

F|---------------|------------------------------|----------------------------|
C|---------------|------------------------------|----------------------------|
G|-------3-------|--5--3----------------5-------|----------------------------|
C|0r----5-543035-|---00-00-600-500-300-7-765035-|x2--------------------------|

Verse:
F|---------------------------------------------------------------------------|
C|---------------------------------------------------------------------------|
G|5---3-----------------5-------5--3-----------------3-----------------------|
C|--00--00-600-500-300-7-765035--00--00-600-500-300-5-543035-330-------------|x2

Pre-Chorus:
F|---------------------------------------------------------------------------|
C|---------------------------------------------------------------------------|
G|----------------------------------------------------------5----------------|
C|000-000-000-003\0-300000-300000--000-000-000-000--300000-7-76503-----------|

F|---------------------------------------------------------------------------|
C|---------------------------------------------------------------------------|
G|-------------------------------------------------------5------5------------|
C|000-000-000-000-300000-300000--000-000-000-000-300000-7-7650-7-7650--------|

Chorus:
F|---------------------------------------------------------------------------|
C|---------------------------------------------------------------------------|
G|--------------------------5r\0--------5r\0---------------------------------|
C|8888888r--5555555r--000000------000000-------------------------------------|x2

Verse:
F|---------------------------------------------------------------------------|
C|---------------------------------------------------------------------------|
G|5---3-----------------5-------5--3-----------------3-----------------------|
C|--00--00-600-500-300-7-765035--00--00-600-500-300-5-543035-330-------------|x2

Pre-Chorus:
F|---------------------------------------------------------------------------|
C|---------------------------------------------------------------------------|
G|----------------------------------------------------------5----------------|
C|000-000-000-003\0-300000-300000--000-000-000-000--300000-7-76503-----------|

F|---------------------------------------------------------------------------|
C|---------------------------------------------------------------------------|
G|---------------------------------------------------------------5------5----|
C|000r-000r-000r-000r-300000-300000--000r-000r-000r-000r-300000-7-7650-7-7650|

Chorus: (Note: There's a little break, so you start after a couple of seconds)
F|---------------------------------------------------------------------------|
C|---------------------------------------------------------------------------|
G|----------------5r\0-------5r\0-------------------------5r\0-------5r\0----|
C|5555555r--000000-----000000-----8888888r-5555555r-000000-----000000--------|

Breakdown: You come in around 2:36
F|---------------------------------------------------------------------------|
C|-----8-----5--0------------------------------------------------------------|
G|---8-----5-----------------------------------------------------------------|
C|/8-----5----------88888888-55555555-00000000-0000000-----------------------|

F|---------------------------------------------------------------------------|
C|---------------------------------------------------------------------------|
G|-----------------------------------555555----------------------------------|
C|88888888-55555555-00000000-00000000----------------------------------------|

Chorus/Ending:
F|---------------------------------------------------------------------------|
C|--8-8-----5-5---0-0---0-0----8-8----5-5------------------------------------|
G|---------------------------------------------------------------------------|
C|88-8---55--5--00-0--00-0---88-8---55-5--0r---------------------------------|

F|---------------------------------------------------------------------------|
C|---------------------------------------------------------------------------|(Just this bar, 
G|-----------------------------5r\0-------5r\0-------------------------------|and without the slide
C|0\10/8888888r-5555555r-000000-----000000-----------------------------------|x4 after the
                                                                              1st time.)

F|---------------------------------------------------------------------------|
C|--8r----5r---0r---0r---8r---5r---0r---0r-----------------------------------|
G|---------------------------------------------------------------------------|
C|8-----5----0----0----8----5----0----0--------------------------------------|


| r  let ring
| /  slide up
| \  slide down
| h  hammer-on
| p  pull-off
| ~  vibrato
| +  harmonic
| x  Mute note
===============================================================================
Suggest correction
Creating personal tab
Creating personal tab
You can edit any tab online and save it as your Personal.

You can edit, replace or remove any tab part or add personal notes – all changes will be seen only by you.

Personal tabs can be accessed anytime from any device, even offline.
Learn more »
comments
print report bad tab
4 comments total. Showing first comments.
+2 reply
monkeyjamsesion 51 Jun 16, 2011 11:44 AM

Verse:
F|---------------------------------------------------------------------------|
C|---------------------------------------------------------------------------|
G|5---3-----------------5----------------------------------------------------|
C|--00--00-600-500-300-7-765035----------------------------------------------|x4

this should be

Verse:
F|---------------------------------------------------------------------------|
C|---------------------------------------------------------------------------|
G|5---3-----------------5-------5--3-----------------3-----------------------|
C|--00--00-600-500-300-7-765035--00--00-600-500-300-5-543035-330-------------|x2

other than that the tab seems to be perfect!

+1 reply
monkeyjamsesion 51 Jun 16, 2011 11:46 AM

take off that random 330 at the end there... oops

0 reply
XxThreeCheersxX 13,175 May 18, 2013 06:01 PM

Excellent tab~
I agree with monkeyjamsesion, with that one exception, this tab is perfect.

guest
You may want to rate the tab now too:
select rating
Wanna post a correction for this tab? Suggest correction