Oops, an error
Loading. Please wait.

My Last Serenade bass

version 2
version 2

Whole song

14,939 views 9 this week
1 commentread comment
1 2 3 4 5
x 5
add to favorites
×
Save as Personal and add changes to this tab that will be seen only by you. Learn more ›
×
You can save this tab as Personal to edit and correct it or add notes. All changes will be seen only by you. Learn more »
launch autoscroll
font size
0
reset
guitar tuner
backing track
0:00
0:00
edit
Autoscroll
slow
fast
+/-
esc
set tempo
stop
Author
Artist: Killswitch Engage
Song: My Last Serenade
Tuning: CGCF

Intro / Main Riff x4
|----------------------------|
|----------------------------|
|----------------------------|
|-/4-000/4-000/4-000-00000000| 

Verse x4
|------------------------|-------------------|
|------------------------|-------------------|
|------------------------|-------------1-----|
|-1-0-1-3-1-0--0-1-3-1-0-|-1-0-1-3-1-0---3-5-| 

Main Riff x4
F|----------------------------|
C|----------------------------|
G|----------------------------|
C|-/4-000/4-000/4-000-00000000| 
 
Pre Chorus x4
|----------------------|-----------------------|
|----------------------|-/3-2-2h3--------------|
|----------------------|----------3/5-3--1/3-1-|
|-3-00000-4000-4000-40-|-----------------------| 

Chorus
|----------------|-----------------------|
|----------------|----2---3-2--------2-3-|
|--------3~---1~-|---------------3-------| x2
|-0~-------------|-00---0-----00---0-----|

|----------------------|-----------------------|
|----------------------|----2---3-2--------2-3-|
|--------333333-111111-|---------------3-------|
|-000000---------------|-00---0-----00---0-----|

|----------------------|
|----------------------|
|--------333333--------|
|-000000--------888888-|

Post Chorus x3
|-------------------------|-----------------|
|-------------------------|-----10-12-------|
|-------------------------|---8-------10----|
|-00000--0000000--0000000-|-7------------8--|

Verse x4
|------------------------|-------------------|
|------------------------|-------------------|
|------------------------|-------------1-----|
|-1-0-1-3-1-0--0-1-3-1-0-|-1-0-1-3-1-0---3-5-| 

Pre-Chorus x4
|----------------------|------------------------|
|----------------------|------------------------|
|----------------------|-/8-7-7h8--3/5-3--1/3-1-|
|-3-00000-4000-4000-40-|------------------------| 

Chorus
|------------------|-----------------------|
|------------------|-----------------------|
|--------3~--------|----7---8-7----3---7-8-| x2
|-0~----------8~---|-00---0-----00---0-----|

|----------------------|-----------------------|
|----------------------|-----------------------|
|--------333333--------|----7---8-7----3---7-8-|
|-000000--------888888-|-00---0-----00---0-----|

|----------------------|
|----------------------|
|--------333333--------|
|-000000--------888888-|
Suggest correction
Creating personal tab
Creating personal tab
You can edit any tab online and save it as your Personal.

You can edit, replace or remove any tab part or add personal notes – all changes will be seen only by you.

Personal tabs can be accessed anytime from any device, even offline.
Learn more »
comments
print report bad tab
1 comment total.
+1 reply
-Collapse- 40 Feb 23, 2008 10:37 AM

This part:

Pre-Chorus x4
G|----------------------|
D|----------------------|
A|----------------------|
D|-3~00000-4000-4000-40-|


Is meant to be
Pre-Chorus x4
G|----------------------|
D|----------------------|
A|----------------------|
D|-3~00000-0000-0000-00-|



You can see him on the DVD pointing at someone in the crowd with his fretting hand while he plays all zeros. Plus the guitar plays zeros there, and it'd sound off if the bass played the wrong note behind them.

guest
You may want to rate the tab now too:
select rating
Wanna post a correction for this tab? Suggest correction