Oops, an error
Loading. Please wait.
We have an official My Last Serenade tab made by UG professional guitarists. Check out the tab »
×
55,840 views 24 this week
13 commentsread comments
1 2 3 4 5
x 31
add to favorites
guitar tuner
Autoscroll
slow
fast
+/-
esc
set tempo
stop
"My Last Serenade"
demo version
Play now

or get full version for Free

×
Get full version now!
Learn and play this song
in Tab Pro
Try for free

or get $10 off Welcome Bonus

Get welcome bonus
Get access to Tab Pro version of “My Last Serenade”!
Tab Pro is a premium guitar tab service, available on PC, Mac, iOS and Android
TRY FOR FREE
Your download will start in 7 seconds
×
Like this song? We have more! Follow us on Facebook for daily tips, lessons and other guitar-related content.
To download “My Last Serenade” Guitar Pro tab click button below
Please note that you must have Guitar Pro software installed on your
computer in order to view this file.
Suggest correction
comments
report bad tab
13 comments total. Showing first comments.
+4 reply
JVDumarC 290 Aug 15, 2006 12:50 PM

dude this tab it's perfect... I don't know who the hell rate it under 5...

+2 reply
JVDumarC 290 Aug 15, 2006 12:58 PM

well except for this...

|---------------------------------------|
|-3-3-3-3-3-3-6--6--6--6--6-3-3-3-3-3-3-|
|-5-7-7-7-7-7-8-10-10-10-10-5-7-7-7-7-7-|
|---------------------------------------|
|---------------------------------------|
|---------------------------------------|

there goes octaves:

|-------------------------------------------------|
|-------------------------------------------------|
|-7-7-7-7-7-7-7-10-10-10-10-10-10-7-7-7-7-7-7-7-7-|
|-x-x-x-x-x-x-x--x--x--x--x--x--x-x-x-x-x-x-x-x-x-|
|-5-5-5-5-5-5-5--8--8--8--8--8--8-5-5-5-5-5-5-5-5-|
|-------------------------------------------------|

+3 reply
darksantana 82 Nov 09, 2006 10:13 AM

and the main riff goes:
h= hammer on, p= pull off
|-------------------------------------------------------------|
|-------------------------------------------------------------|
|-------------------------------------------------------------|
|-1-h4-p0--0-0--1-h4-p0--0-0--1-h4-p0--0-0--------------------|
|-1-h4-p0--0-0--1-h4-p0--0-0--1-h4-p0--0-0--------------------|
|-1-h4-p0--0-0--1-h4-p0--0-0--1-h4-p0--0-0--4-3-2-0-5-4-3-0---|
PM- PM- PM------------------|

guest