Oops, an error
Loading. Please wait.
We have an official My Last Serenade tab made by UG professional guitarists. Check out the tab »
×
7,740 views 27 this week
3 commentsread comments
1 2 3 4 5
x 4
add to favorites
×
Save as Personal and add changes to this tab that will be seen only by you. Learn more ›
×
You can save this tab as Personal to edit and correct it or add notes. All changes will be seen only by you. Learn more »
launch autoscroll
font size
0
reset
how to read this tab
guitar tuner
backing track
0:00
0:00
edit
Autoscroll
slow
fast
+/-
esc
set tempo
stop
Killswitch Engage: "My Last Serenade"
(2002, Alive Or Just Breathing)
Full Tab Submitted by Mikey
Email: chasethegreenpaper@hotmail.com

Strummed acoustic simulator intro

|-2---2-10-|
|-3-5-3-7--|
|-2-5-2-7--|
|-0-3-0-0--|
|-0-0-0-0--|
|----------|

Distorted intro

|-----------------------------------------|
|-----------------------------------------|
|-----------------------------------------|
|-4p0-0-0-4p0-0-0-4p0-0-0-----------------|
|-4p0-0-0-4p0-0-0-4p0-0-0-----------------|
|-4p0-0-0-4p0-0-0-4p0-0-0-0-0-0-0-0-0-0-0-|
                          pmpmpmpmpmpmpmpm

Verse 1

|----------------------------------------------------|
|----------------------------------------------------|
|----------------------------------------3-----------|
|-1-0-1-3-1-0---0-1-3-1-0---1-0-1-3-1-0--3-0-0-5-0-7-|
|-1-0-1-3-1-0---0-1-3-1-0---1-0-1-3-1-0--1-0-0-5-0-7-|
|-1-0-1-3-1-0---0-1-3-1-0---1-0-1-3-1-0----0-0-5-0-7-|
  pmpmpmpmpmpm  pmpmpmpmpm  pmpmpmpmpm     pmpm  pm

Prechorus

|-----------------------------------------------------|
|-----------------------------------------------------| and immediately
|---------------------------------10-10-10-10-7-5-5-3-|   back again
|-3p0-0-0-0-0-0-0-0-0-0-0-0-0-0-0-10-10-10-10-7-5-5-3-|
|-3p0-0-0-0-0-0-0-0-0-0-0-0-0-0-0-8--7--7--8--5-3-3-1-|
|-3p0-0-0-0-0-0-0-0-0-0-0-0-0-0-0---------------------|
      pmpmpmpmpmpmpmpmpmpmpmpmpmpm

Chorus

|--------          |-------|
|--------          |-6-5-6-|
|---5-10- Guitar 1 |-5-5-5-| Guitar 2
|-0-5-10-          |-0-0-0-|
|-0-3-8--          |-------|
|-0---8--          |-------|

Turnaround (Played at end of each bar of chorus)

|--------------------|
|--------------------|
|--------------------|
|-----2-3/2------2/3-|
|--------------3-----|
|-0-0--------0-------|
  pmpm       pm

Verse 2, Part I (G5 bar chord and intro turnaround played
simultaneously over both guitars.)

|-------------------------------------------------------|
|-------------------------------------------------------|
|-------------------------------------------------------|
|-----10h12-----0-0-0-0-0-0--0-0-0-0-0-0--0-0-0-0-0-0-7-|
|----8-----10---0-0-0-0-0-0--0-0-0-0-0-0--0-0-0-0-0-0-7-|
|-0h7--------8--0-0-0-0-0-0--0-0-0-0-0-0--0-0-0-0-0-0-7-|
                pmpmpmpmpmpm pmpmpmpmpmpm pmpmpmpmpmpm

Verse 2, Part II, Guitar 1

|------------------------------------------------------|
|------------------------------------------------------|
|------------------------------------------3-----------|
|-1-0-1-3-1-0---0-1-3-1-0---1-0-1-3-1-0--0-3-0-0-5-0-7-|
|-1-0-1-3-1-0---0-1-3-1-0---1-0-1-3-1-0--0-1-0-0-5-0-7-|
|-1-0-1-3-1-0---0-1-3-1-0---1-0-1-3-1-0--0---0-0-5-0-7-|
  pmpmpmpmpmpm  pmpmpmpmpm  pmpmpmpmpmpm pm  pmpm  pm

Verse 2, Part II, Guitar 2
(This part begins after Guitar 1 plays the bar above twice)

|-----------------------------------------------------------------|
|-----------------------------------------------------------------|
|-7-7-7-7-7-7-7-7-7-7-7-7-7-7-7-7-7-7-7-7-7-7-7-7-7-7-7-7-7-7-7-7-|
|-----------------------------------------------------------------|
|-----------------------------------------------------------------|
|-----------------------------------------------------------------|

|-------------------------------------------------|
|-------------------------------------------------|
|-10-10-10-10-10-10-10-10-10-10-10-10-10-10-10-10-|
|-------------------------------------------------|
|-------------------------------------------------|
|-------------------------------------------------|

|---------------------------------|
|---------------------------------|
|-7-7-7-7-7-7-7-7-7-7-7-7-7-7-7-7-|
|---------------------------------|
|---------------------------------|
|---------------------------------|

2nd chorus is actually the same minus the last turnaround: the guitars
split to harmonize again.

Last Turnaround, Guitar 2

|--------------------|
|--------------------|
|--------------------|
|-----5-7/5------5h7-|
|--------------7-----|
|-0-0--------0-------|
  pmpm       pm

Killswitch songs are definitely an interesting breed as a lot of ear
training is needed to pick up all the intricacies.  Then again, those
intricacies are half the reason their music is so listenable.  Due to
the nature of this music, I cannot guarantee complete accuracy although
I know for a fact it's very close.

            
            
Suggest correction
Creating personal tab
Creating personal tab
You can edit any tab online and save it as your Personal.

You can edit, replace or remove any tab part or add personal notes – all changes will be seen only by you.

Personal tabs can be accessed anytime from any device, even offline.
Learn more »
comments
print report bad tab
3 comments total.
0 reply
H, Omitted 70 Apr 10, 2007 08:23 PM

Sounds somewhat off especially in the intro
Its:
-------------1--1-1--1
---6--6-5--5-1--1-1--1
---5--5-5--5-3----1---
---3----3----3----3---
---3----3----1----1---
---------------------- for a span of 3x
then the first two things again before it spirals

0 reply
xcmbx1293 10 Aug 14, 2009 03:39 AM

verse definitely isnt palm muted

0 reply
Jalen_man 10 Dec 24, 2012 02:20 AM

You're intro sucks... -_-

guest
Wanna post a correction for this tab? Suggest correction