Oops, an error
Loading. Please wait.

Numbered Days tab

version 4
version 4

Whole song

Interactive

2,886 views 1 this week
5 commentsread comments
1 2 3 4 5
x 7
add to favorites
×
Save as Personal and add changes to this tab that will be seen only by you. Learn more ›
×
You can save this tab as Personal to edit and correct it or add notes. All changes will be seen only by you. Learn more »
launch autoscroll
font size
0
reset
how to read this tab
guitar tuner
backing track
0:00
0:00
edit
Autoscroll
slow
fast
+/-
esc
set tempo
stop
Author
album:alive or just breatheing
tabbed by: dicer4
e-mail: dicer4@msn.com

intro both gtr.'s
d|-------------------------------------------------------------|
A|-------------------------------------------------------------|
F|-------------------------------------------------------------|
C|--------3-4-3---------------3-4-3----------------------------|
G|-0-0--1-1-1-1-1h0----0-0--1-1-1-1-1h0--0-0-1-0--0-0-1-0------|
C|-0-0--1-------1h0----0-0--1-------1h0--0-0-1-0--0-0-1-0------|
pm . .                 . .               . . . .  . . . .

interlude gtr.1
d|-----------------------------------------------------|
A|-----------------------------------------------------|
F|-----------------------------------------------------|
C|---------------------------5-------------------------|
G|-0-0-0------0-0-3------0-0-3------0-0-0--------------|
C|-0-0-0------0-0-3------0-0--------0-0-0--------------|
pm . .        . .        . .        . .

gtr.2
d|-----------------------------------------------------|
A|--------8-------------8------------------------------|
F|--7-------7-------------7----------------------------|
C|----5--------5-----5------5--------------------------|
G|------5--------5-----5-------------------------------|
C|-----------------------------------------------------|

verse both gtr.'s (first time around)
d|-----------------------------------------------------|
A|-----------------------------------------------------|
F|-----------------------------------------------------|
C|-------3-4-3-----------------------------------------|
G|-0-0-1-1-1-1-1h0-0-0-0-0-0-0-1h0--0-0-0-0-0-0-0-1h0--|
C|-0-0-1-------1h0-0-0-0-0-0-0-1h0--0-0-0-0-0-0-0-1h0--|
pm . .             . . . . . .      . . . . . . .

verse 2 gtr.1
d|-----------------------------------------------------|
A|-----------------------------------------------------|
F|----------------------------------<3>----------------|
C|-----------------------------------------------------|
G|-5---5---3--1--1-------1---3---5---------------------|
C|---0---0---0--0--0-3-0---0---0-----------------------|
pm   .   .   .  .  .   .   .   .

gtr.2
d|-----------------------------------------------------|
A|-----------------------------------------------------|
F|-----------------------------------------------------|
C|--0-----3-8----5-0-----3-8---------------------------|
G|--0-----3-8----5-0-----3-8---------------------------|
C|--0-----3-8----5-0-----3-8---------------------------|

verse both gtr.'s (second time around)
d|------------------------------------------------------|
A|------------------------------------------------------|
F|------------------------------------------------------|
C|-------3-4-3------------------------------------------|
G|-0-0-1-1-1-1-1h0---0-0-1-0---0-0-1-0------------------|
C|-0-0-1-------1h0---0-0-1-0---0-0-1-0------------------|
pm . .               . . . .   . . . .

bridge gtr.1 (i couldnt figure out how to play the pre-choures or choures)
d|------------------------------------------------------|
A|--------5h6p5---------5---------5h6p5---------5-------
F|-----7-----------------------7------------------------|
C|---5-----------5-6-5-------5-----------5-6-5----------|
G|-5-----------------------5----------------------------|
C|------------------------------------------------------|
pm . . .         . . .     . . .         . . .

d|------------------------------------------------------|
A|-----------8h9p8----------8-----------3h4p3-------3---|
F|------10--------------------------5-------------------|
C|----8-------------8-9-8---------3-----------3-4-3-----|
G|--8---------------------------3-----------------------|
C|------------------------------------------------------|
pm  . . .           . . .       . . .         . . .

gtr.2
d|-----------------------------------------------------|
A|-----------------------------------------------------|
F|-----------------------------------------------------|
C|-----------------------------------------------------|
G|-0---0-0---0---0-0-----5------1----------------------|
C|-0---0-0---0---0-0-----5------1----------------------|
pm .   . .   .   . .

d|-----------------------------------------------------|
A|-----------------------------------------------------|
F|-----------------------------------------------------|
C|-----------------------------------------------------|
G|-0---0-0---0---0-0---5---5-5---1---1-1---------------|
C|-0---0-0---0---0-0---5---5-5---1---1-1---------------|
pm .   . .   .   . .   .   . .   .   . .

this is most of the song, i couldnt figure out a couple parts so feel free to add on to the song

LYRICS:

the time approches, fall
this is the voice of the voiceless
we have learned by making choices
after prosicution and dilusion
we have severed the soloution
to build our foundation on narural elements to disturbed lives
we will rize, this babyalo   FALLLL

chanting insparation for the rightious dislocation for the solcial order

kingdomes will rise to power,
but kingdomes will fall to dust

the ashes of the dead will be a sign the time approches
who will here your crie afll abaylon the time approches

arms razed, eyes gazed, tounges of fire wisper
this life will soon slip away

fall, babylon, your days are numbered

fall, babylon you will fall your days our number, the time approches
who will here your crie ass you fall, the time approches


            
            
Suggest correction
Creating personal tab
Creating personal tab
You can edit any tab online and save it as your Personal.

You can edit, replace or remove any tab part or add personal notes – all changes will be seen only by you.

Personal tabs can be accessed anytime from any device, even offline.
Learn more »
comments
print report bad tab
5 comments total. Showing first comments.
0 reply
xX_KsE_Xx 10 Mar 26, 2006 09:10 AM

great tab, everything you put sonds right, !!!

0 reply
kt0410 10 Apr 25, 2006 05:57 PM

seems right

0 reply
gigson111 143 Nov 28, 2006 12:49 PM

meh i dont like it the pinches arent and the intro isnt good

guest
You may want to rate the tab now too:
select rating
Wanna post a correction for this tab? Suggest correction