Oops, an error
Loading. Please wait.

Prelude bass

version 1
version 1

Whole song

Interactive

502 views 1 this week
3 commentsread comments
1 2 3 4 5
1 last vote to show rating
add to favorites
×
Save as Personal and add changes to this tab that will be seen only by you. Learn more ›
×
You can save this tab as Personal to edit and correct it or add notes. All changes will be seen only by you. Learn more »
launch autoscroll
font size
0
reset
guitar tuner
edit
Autoscroll
slow
fast
+/-
esc
set tempo
stop
Author
Band: Killswitch Engage
Song: Prelude
Tuning: CGCF

|------------------------------------|
|------------------------------------|
|-5\3/5------------------------------|
|-------xxxxxxxxxxxxxxxxxxxxxxxxxxxx-|

|-------------------------------------------|
|---------------------00---00---0---00------|
|-5\3/5-------------------------------—x--/-|
|--------xxxxxxxxxxxxx---x----x---x---------|

|----------------------------------|
|---------------3------------------|
|-5\3/5-----------------3-----1----|
|--------x-xxx-x---x-x-x---x-x---x-|

|--------------------------------|
|---------------3----------------|
|-5\3/5-----------------3-----1--|
|--------x-xxx-x---x-x-x---x-x---|

|-----------------------------------|
|---------------3-------------------|
|-5\3/5-----------------3-----1-----|
|--------x-xxx-x---x-x-x---x-x---x--|

|-------------------------------|
|---------------3---------------|
|-5\3/5-----------------3-----1-|
|-------x-xxx-x---x-x-x---x x---|

------------------------------------------------|
--------------------0-----------------------3-1-|
-5\-----3---1-----------------3-------1---------|
----x-x---x---x-x-x---x-x-x-x---x-x-x---x-x-----|

-----------------------------------------------|
--------------------0----------------------3-1-|
-5\-----3---1----------------3-------1---------|
----x-x---x---x-x-x---x-x-x-x---x-x-x---x-x----|

-------------------------------------------------|
-0-0-0----------------------0-0-0----------------|
-----------3-3---1-1-1-------------3-3---1-------|
-------xxx-----x-------x-------xxx-----x---x-x-x-|

-----------------------------------------------|
-0-0-0-------------------0-0-0-----------------|
-----------3-3---1-1-1-------------3-3---1-1-1-|
-------xxx-----x-------x-------xxx-----x-------|

--------------------------------------------|
--------------------------------------------|
-3/5\3/5------------------------------------|
---------------xxxxxxxxxxxxxxxxxxxxxxxxxxxx-|

------------------------------------------|
---------------------00---00---0---00-----|
-5\3/5-------------------------------—x-/-|
--------xxxxxxxxxxxxx----x----x---x-------|

---------------------------------|
---------------3-----------------|
-5\3/5-----------------3-----1---|
-------x-xxx-x---x-x-x---x-x---x-|

-------------------------------|
---------------3---------------|
-5\3/5-----------------3-----1-|
-------x-xxx-x---x-x-x---x-x---|

---------------------------------|
---------------3-----------------|
-5\3/5-----------------3-----1---|
-------x-xxx-x---x-x-x---x-x---x-|

-------------------------------|
---------------3---------------|
-5\3/5-----------------3-----1-|
-------x-xxx-x---x-x-x---x-x---|

----------------------------------------------------------------|
------------------------------0-----------------------------3-1-|
-5\-----------3-------1-----------------------3-------1---------|
----x-x-x-x-x---x-x-x---x-x-x---x-x-x-x-x-x-x---x-x-x---x-x-----|

-----------------------------------------------------------------|
-----------------------------------------------------------------|
-5\-----------3-------1-------5---------------3-------1-----8-6--|
----x-x-x-x-x---x-x-x---x-x-x---x-x-x-x-x-x-x---x-x-x---x-x------|

-------------------------------------------------|
-------------------------------------------------|
-5-5-5-----3-3---1-1-1---5-5-5-----3-3---1-------|
-------xxx-----x-------x-------xxx-----x---x-x-x-|

-----------------------------------------------|
-----------------------------------------------|
-5-5-5-----3-3---1-1-1---5-5-5-----3-3---1-1-1-|
-------xxx-----x-------x-------xxx-----x-------|

-------------------------|
-------------------------|
-----1---0-----3-----5---|
-------------------------|

            
            
Suggest correction
Creating personal tab
Creating personal tab
You can edit any tab online and save it as your Personal.

You can edit, replace or remove any tab part or add personal notes – all changes will be seen only by you.

Personal tabs can be accessed anytime from any device, even offline.
Learn more »
Give kudos to tab author, rate the tab!
1 2 3 4 5
comments
print report bad tab
3 comments total.
0 reply
vikkoo 94 Mar 25, 2007 11:21 AM

nice tabs dude close to perfect, or it might be perfect and just me ****ing it up, 4 stars

0 reply
Satan Man 1,286 Mar 26, 2007 08:45 AM

ta man. well i try my best.

0 reply
wdw115 10 Oct 26, 2008 05:20 PM

good tab, but it's in drop D not C. As weird as it may seem, and as much as i know KSE plays in drop C, their first album isn't all in C. play along with the song and you'll notice its a step off. other than that, good tab!

guest
You may want to rate the tab now too:
select rating
Wanna post a correction for this tab? Suggest correction