Oops, an error
Loading. Please wait.
We have an official Reckoning tab made by UG professional guitarists. Check out the tab »
×
34,881 views 1 this week
8 commentsread comments
1 2 3 4 5
x 15
add to favorites
×
Save as Personal and add changes to this tab that will be seen only by you. Learn more ›
×
You can save this tab as Personal to edit and correct it or add notes. All changes will be seen only by you. Learn more »
launch autoscroll
font size
0
reset
how to read this tab
guitar tuner
edit
Autoscroll
slow
fast
+/-
esc
set tempo
stop
Author
Tabbers playing skills
advanced +
-------------------------------------------------------------------------------
                             Reckoning - Killswitch Engage
-------------------------------------------------------------------------------
Tabbed by: Chris Tranmer (face_the_fear)
Email: sk8anis2002@hotmail.com

!!There are a few guitar harmonies in this song but I have only tabbed out the parts I 
along to!!

Tuning: Drop C

Intro Riff 1 x2

D|---------------------------------------------------------------------------|
A|---------------------------------------------------------------------------|
F|---------------------------------------------------------------------------|
C|---------------------------------------------------------------------------|
G|-5-5-5-5-5-5-5-5-5-5-5-5-7-7-7-7-7-7-7-7-7-7-7-7-8-8-8-8-8-8-8-8-8-8-8-8---|
C|---------------------------------------------------------------------------|

D|---------------------------------------------------------------------------|
A|---------------------------------------------------------------------------|
F|---------------------------------------------------------------------------|
C|-10-10-10-10-10-10-10-10-10-10-10-10-8-10-10-10-10-10-10-10-10-10-10-10----|
G|---------------------------------------------------------------------------|
C|---------------------------------------------------------------------------|

D|---------------------------------------------------------------------------|
A|---------------------------------------------------------------------------|
F|---------------------------------------------------------------------------|
C|8-8-8-8-7-7-7-7------------------------------------------------------------|
G|----------------8-8-8-8-8-8-8-8-8-8-8-8-7-7-7-7-7-7-7-7-7-7-7-7------------|
C|---------------------------------------------------------------------------|

Intro Riff 2 x2

D|----------------------------------------------------------------------------|
A|----------------------------------------------------------------------------|
F|------------------------------------------------7-7-7-7-7-7-7-7-7-7-7-7-6---|
C|0-----------2-----------3-----------7---------------------------------------|
G|0-0-0-0-0-0-2-2-2-2-2-2-3-3-3-3-3-3-7-7-7-7-7-7-5-5-5-5-5-5-5-5-5-5-5-5-4---|
C|0-0-0-0-0-0-2-2-2-2-2-2-3-3-3-3-3-3-7-7-7-7-7-7-----------------------------|
   PM--------  PM--------  PM--------  PM-------------------------------------|

D|---------------------------------------------------------------------------|
A|---------------------------------------------------------------------------|
F|6-6-6-6-6------------------------------------------------------------------|
C|----------7-7-7-7-7-7------------------------------------------------------|
G|4-4-4-4-4------------------------------------------------------------------|
C|----------7-7-7-7-7-7------------------------------------------------------|


Verse Riff x2

D|----------------------------------------------------------------------------|
A|----------------------------------------------------------------------------|
F|----------------------------------------------------------------------------|
C|------7-----------7-----------5-----------5-----------10---------10---------|
G|------5-----------5-----------3-----------3-----------8----------10---------|
C|0-0-0-------0-0-0-------3-3-3-3-----3-3-3-3-----8-8-8-8----8-8-8-8----------|
 PM----       PM----      PM----      PM----      PM----     PM---------------|

D|----------------------------------------------------------------------------|
A|----------------------------------------------------------------------------|
F|----------------------------------------------------------------------------|
C|------10----------10--------------------------------------------------------|
G|------7-----------7---------------------------------------------------------|
C|0-0-0-------0-0-0-----------------------------------------------------------|
 PM----       PM--------------------------------------------------------------|


Chorus Riff x2

D|------------------------------------------------------------------------------|
A|------------------------------------------------------------------------------|
F|------------------------------------------------------------------------------|
C|7-0-5/7-0-7-10-0-7-0-5-0-7-0-5/7-0-7-12-7-/10~~--8--7-------------------------|
G|------------------------------------------------------8~~7~~------------------|
C|------------------------------------------------------------------------------|


Intro Riff 1 x2

D|---------------------------------------------------------------------------|
A|---------------------------------------------------------------------------|
F|---------------------------------------------------------------------------|
C|---------------------------------------------------------------------------|
G|-5-5-5-5-5-5-5-5-5-5-5-5-7-7-7-7-7-7-7-7-7-7-7-7-8-8-8-8-8-8-8-8-8-8-8-8---|
C|---------------------------------------------------------------------------|

D|---------------------------------------------------------------------------|
A|---------------------------------------------------------------------------|
F|---------------------------------------------------------------------------|
C|-10-10-10-10-10-10-10-10-10-10-10-10-8-10-10-10-10-10-10-10-10-10-10-10----|
G|---------------------------------------------------------------------------|
C|---------------------------------------------------------------------------|

D|---------------------------------------------------------------------------|
A|---------------------------------------------------------------------------|
F|---------------------------------------------------------------------------|
C|8-8-8-8-7-7-7-7------------------------------------------------------------|
G|----------------8-8-8-8-8-8-8-8-8-8-8-8-7-7-7-7-7-7-7-7-7-7-7-7------------|
C|---------------------------------------------------------------------------|


Verse Riff x2

D|----------------------------------------------------------------------------|
A|----------------------------------------------------------------------------|
F|----------------------------------------------------------------------------|
C|------7-----------7-----------5-----------5-----------10---------10---------|
G|------5-----------5-----------3-----------3-----------8----------10---------|
C|0-0-0-------0-0-0-------3-3-3-3-----3-3-3-3-----8-8-8-8----8-8-8-8----------|
 PM----       PM----      PM----      PM----      PM----     PM---------------|

D|----------------------------------------------------------------------------|
A|----------------------------------------------------------------------------|
F|----------------------------------------------------------------------------|
C|------10----------10--------------------------------------------------------|
G|------7-----------7---------------------------------------------------------|
C|0-0-0-------0-0-0-----------------------------------------------------------|
 PM----       PM--------------------------------------------------------------|


Chorus Riff x4

D|---------------------------------------------------------------------------|
A|---------------------------------------------------------------------------|
F|---------------------------------------------------------------------------|
C|7-0-5/7-0-7-10-0-7-0-5-0-7-0-5/7-0-7-12-7-/10~~--8--7----------------------|
G|------------------------------------------------------8~~7~~---------------|
C|---------------------------------------------------------------------------|


Bridge Riff x3

D|----------------------------------------------------------------------------|
A|----------------------------------------------------------------------------|
F|----------------------------------------------------------------------------|
C|-7p0-7p0------7p0-7p0-----8p0-8p0-------7p0-7p0-----10p0-10p0-----7p0-7p0---|
G|----------------------------------------------------------------------------|
C|---------7-7----------8-8---------10-10---------0-0-----------0-0-----------|
          PM--         PM--        PM---         PM--           PM------------|

D|---------------------------------------------------------------------------|
A|---------------------------------------------------------------------------|
F|---------------------------------------------------------------------------|
C|-----10p0-10p0-------------------------------------------------------------|
G|---------------------------------------------------------------------------|
C|-7-7-----------------------------------------------------------------------|
  PM--


Bridge Riff End

D|----------------------------------------------------------------------------|
A|----------------------------------------------------------------------------|
F|----------------------------------------------------------------------------|
C|-7p0-7p0------7p0-7p0-----8p0-8p0-------------------------------------------|
G|-----------------------------------------5p0-5p0-----5p0-5p0-------5p0-5p0--|
C|---------7-7----------8-8---------10-10---------0-0-----------0-0-----------|
          PM--         PM--        PM---         PM--           PM------------|

D|---------------------------------------------------------------------------|
A|---------------------------------------------------------------------------|
F|---------------------------------------------------------------------------|
C|---------------------------------------------------------------------------|
G|------5p0-5p0--------------------------------------------------------------|
C|-0-0-----------------------------------------------------------------------|
  PM--

Chorus Riff x4

D|---------------------------------------------------------------------------|
A|---------------------------------------------------------------------------|
F|---------------------------------------------------------------------------|
C|7-0-5/7-0-7-10-0-7-0-5-0-7-0-5/7-0-7-12-7-/10~~--8--7----------------------|
G|------------------------------------------------------8~~7~~---------------|
C|---------------------------------------------------------------------------|


Outro

D|---------------------------------------------------------------------------|
A|---------------------------------------------------------------------------|
F|---------------------------------------------------------------------------|
C|7-0-5/7-0-7-10-0-7-0-5-0-7-0-5/7-0-7-12-7-5p0------------------------------|
G|---------------------------------------------------------------------------|
C|---------------------------------------------------------------------------|

Feel free to add the harmonies into comments and I will update the tab with them.

| /  slide up
| \  slide down
| h  hammer-on
| p  pull-off
| ~  vibrato
| +  harmonic
| x  Mute note
===============================================================================
Suggest correction
Creating personal tab
Creating personal tab
You can edit any tab online and save it as your Personal.

You can edit, replace or remove any tab part or add personal notes – all changes will be seen only by you.

Personal tabs can be accessed anytime from any device, even offline.
Learn more »
comments
print report bad tab
8 comments total. Showing first comments.
0 reply
mosher666 144 Jun 03, 2009 06:08 AM

great tab dude :D
sounds about right

+3 reply
axmast3r 10 Jun 20, 2009 04:28 PM

almost perfect... except:

D|----------------------------------------------------------------------------|
A|----------------------------------------------------------------------------|
F|----------------------------------------------------------------------------|
C|------10----------10--------------------------------------------------------|
G|------7-----------7---------------------------------------------------------|
C|0-0-0-------0-0-0-----------------------------------------------------------|
PM---- PM--------------------------------------------------------------|

Should go

D|----------------------------------------------------------------------------|
A|----------------------------------------------------------------------------|
F|----------------------------------------------------------------------------|
C|---------10-------------10--------------------------------------------------------|
G|---------7--------------7---------------------------------------------------------|
C|10-10-10-------10-10-10-----------------------------------------------------------|
PM------- PM--------------------------------------------------------------|

0 reply
KSE_Victor 265 Jul 23, 2009 11:37 AM

I think it sounds like he´s playing pull-offs in chorus part.

D|---------------------------------------------------------------------------|
A|---------------------------------------------------------------------------|
F|---------------------------------------------------------------------------|
C|7p0-5p0-7p0-10p0-7p0-5p0-7p0-5p0-7p0-12p0-7p0-10~~--8--7----------------------|
G|------------------------------------------------------8~~7~~---------------|
C|---------------------------------------------------------------------------|

something like that.

guest
You may want to rate the tab now too:
select rating
Wanna post a correction for this tab? Suggest correction