Oops, an error
Loading. Please wait.

Rose Of Sharyn Tab

version 1
169,617 views 66 this week
35 commentsread comments
1 2 3 4 5
x 63
add to favorites
launch autoscroll
font size
0
reset
how to read this tab
guitar tuner
Autoscroll
slow
fast
+/-
esc
set tempo
stop
Help us to improve Ultimate-Guitar.com Take our survey!
×
Author
Tuning
D G C F A D
Rose of sharyn - Killswitch Engage
Tabbed by: Maizzi
Email: Maizzi_@hotmail.com
Tuning: C G C F A D


[Intro/Bridge 1]  (4x)

D|-----------------------------------------------------|
A|-----------------------------------------------------|
F|-----------------------------------------------------|
C|------0-0-0-0-0-0-0-8-7--0-0-0-0-0-0-0-1-0-----------|
G|------0-0-0-0-0-0-0-6-5--0-0-0-0-0-0-0-1-0-----------|
D|-12\--0-0-0-0-0-0-0------0-0-0-0-0-0-0-1-0-----------|
          x x x x x x        x x x x x x 
     
D|--------------------------------------------------------|
A|--------------------------------------------------------|
F|--------------------------------------------------------|
C|-0-0-0-0-0-0-0-8-7p8p7-------8-10-----------------------|
G|-0-0-0-0-0-0-0---------7p8p7-8-10---------------------- |
D|-0-0-0-0-0-0-0---------------8-10-----------------------|
   x x x x x x x


[Bridge 2]  (2x)

D|-------------------------------------------------|
A|-------------------------------------------------|
F|-------------------------------------------------|
C|-------------------------------------------------|
G|---5---7---8----5---7---8----5---7---8-----------|
D|-0---0---0----0---0---0----7---7---7-------------|
   x   x   x    x   x   x    x   x   x

D|------------------------------------------------------------------------|
A|------------------------------------------------------------------------|
F|------------------------------------------------------------------------|
C|------------------------------------------------------------10------10--|
G|---5---7---8----5---7---8----5---7---8----5---7---8-----7-8-----7-8-----|
D|-0---0---0----0---0---0----7---7---7----5---5---5-----------------------|
   x   x   x    x   x   x    x   x   x    x   x   x       x x     x x


[Chorus]  (2x)

D|-------------------------------------------------|
A|-------------------------------------------------|
F|-2-------------2-2-3-3------7----------7-7-8-8---|
C|-1--1-1-1-1-1--1-1-1-1---3--3-3-3-3-3--3-3-3-3---|
G|-1--1-1-1-1-1--1-1-1-1---3--3-3-3-3-3--3-3-3-3---|
D|-1--1-1-1-1-1--1-1-1-1---3--3-3-3-3-3--3-3-3-3---|
      x x x x x               x x x x x           
 
D|-------------------------------------------------|
A|-------------------------------------------------|
F|----------------7-7-8-8--------------------------|
C|---5-5-5-5-5-5--5-5-5-5--8-8-8-8-8-8--8-8-3-3----|
G|---5-5-5-5-5-5--5-5-5-5--8-8-8-8-8-8--8-8-3-3----|
D|---5-5-5-5-5-5--5-5-5-5--8-8-8-8-8-8--8-8-3-3----|
       x x x x x             x x x x x


[Bridge 1] (4x)
[Bridge 2] (2x)
[Chorus]   (2x)


[Chorus 2] (2x)

D|--------------------------------------------------------------|
A|--------------------------------------------------------------|
F|-------3---2---0---3---2-----------8---7---5---8---7--5p7-----|
C|--1-1--------------------0-1--3-3-----------------------------|
G|--1-1---1---1---1----1---0-1--3-3----3---3---3---3------------|
D|--1-1---1---1---1----1---0-1--3-3----3---3---3---3------------|
      x   x   x   x    x          x    x   x

D|--------------------------------------------------|
A|--------------------------------------------------|
F|--------------------------------------------------|
C|-------8--7--8------8----8--7----3-3--------------|
G|--5---5--5--5---5---8---8--8--8--3-3--------------|
D|--5--5--5--5---5----8--8--8--8---3-3--------------|
       xx xx xx  xx      xx xx

Slow part
D|-----------------------------------------------|
A|-----------------------------------------------|
F|-----------------------------------------------|
C|--1---3---5---8-----1---3---5---8-8-8----------|
G|--1---3---5---8-----1---3---5---8-8-8----------|
D|--1---3---5---8-----1---3---5---8-8-8----------|

Then chorus 2 till fade out




*********************************

| /  slide up
| \  slide down
| h  hammer-on
| p  pull-off
| ~  vibrato
| +  harmonic
| x  Mute note

*********************************
Suggest correction
comments
print report bad tab
35 comments total. Showing first comments.
0 reply
kyo1986 51 Feb 20, 2005 12:00 AM

Hey Bro. Why do have CGCFAd as the tuning at the top of the page, but standard tuning along the side of the tab?

0 reply
sevendust07 10 Mar 27, 2005 12:00 AM

artificial harmonic during first bridge on
F-a.h.8
C--
G--
C--

0 reply
guitarman47 132 Jun 18, 2005 12:00 AM

pinched

guest
You may want to rate the tab now too:
select rating
Wanna post a correction for this tab? Suggest correction