Oops, an error
Loading. Please wait.
We have an official Rose Of Sharyn tab made by UG professional guitarists. Check out the tab »
×
2,120 views 1 this week
4 commentsread comments
1 2 3 4 5
x 5
add to favorites
×
Save as Personal and add changes to this tab that will be seen only by you. Learn more ›
×
You can save this tab as Personal to edit and correct it or add notes. All changes will be seen only by you. Learn more »
launch autoscroll
font size
0
reset
guitar tuner
backing track
0:00
0:00
edit
Autoscroll
slow
fast
+/-
esc
set tempo
stop
Author
Difficulty
Band: Killswitch Engage ( KsE )
Song: Rose Of Sharyn
Album: The End Of Heartache
Bassist: Mike D'Antonio

This is my first tab, so I hope it sounds good to you guys.
This is exactly how I play it, and it sounds amazing when I play it, so, have fun.

Tuning C G C F


Verse/Intro: 2x
|-----------------------------------------------------------------|
|------------------------------------------------7h8p7------------|
|6---------------6-5-----------1-0-----------6----------7h8p7-----|
|-0-0-0-0-0-0-0-----0-0-0-0-0-----0-0-0-0-0---0---------------8h10|

Verse/Intro: 2x
|--------------------------------------------------------------------------|
|-------------------------------------------------10h12p10-----------------|
|6---------------6-5-----------1-0------------6-------------10h12p10-------|
|-0-0-0-0-0-0-0-----0-0-0-0-0-----0-0-0-0-0----0---------------------10h12-|

Bridge: x1


|---------------------------------------------------------------------------|
|-----------------0-2-3-------------------------0-2-3------10-----10--------|
|--5-7-8--5-7-8--3-3-3--050708---5-7-8--5-7-8--3-3-3---7-8----7-8-----------|
|-0-0-0--0-0-0------------------0-0-0--0-0-0--------------------------------|


If you can, play all the notes, otherwise, just play bottom notes

|---------------------------------------------------------------------------|
|-----------------0-2-3-------------------------0-2-3------10---------------|
|--5-7-8--5-7-8--3-3-3--050708---5-7-7--5-7-8--3-3-3---7-8------------------|
|-0-0-0--0-0-0------------------0-0-0--0-0-0------------------7\------------|


Pre-chorus: x1

|------------------------------------------------------------------|
|------------------------------------------------------------------|
|------------------------------------------------------------------|
|-1—1-1-1-1-1-1-1-1-1-1-1-1-1-1-1/3-3-3-3-3-3-3-3-3-3-3-3-3-3-3-3--|

------------------------------------------------------------------|
------------------------------------------------------------------|
------------------------------------------------------------------|
5-5-5-5-5-5-5-5-5-5-5-5-5-5-5-5/8-8-8-8-8-8-8-8\—-555\--3-33------|

------------------------------------------------------------------|
------------------------------------------------------------------|
------------------------------------------------------------------|
-1—1-1-1-1-1-1-1-1-1-1-1-1-1-1-1/3-3-3-3-3-3-3-3-3-3-3-3-3-3-3-3--|

-----------------------------------------------------|
-----------------------------------------------------|
-----------------------------------------------------|
5-5-5-5-5-5-5-5-5-5-5-5-5-5-5-5/-8-8-8-8-8-8-8-x—----|


When KsE performs live, he does this slide:

Start slide at 00:57
-----------|
-----------|
-----------|
-/15\------|

Repeat Verse/Intro, Bridge


Slight Change in Bridge:
Do this 2nd time

------------------|
-----10-----10----|
-7-8----7-8-------|
---------------7\-|


Repeat Pre-Chorus

Chorus: 2x

|--------------------------------------------------------------------|
|--------------------------------------------------------------------|
|--------------------------------------------------------------------|
|-1—1-1-1-1-1-111-/3-3-3-3-3-3-333-/5-555-55-555-5/8-888-8\555-5\333-|


Interlude:

|------------------------------------------|
|------------------------------------------|
|------------------------------------------|
|-1~---------3~-----5~------8~------\------|

-----------------------------------------|
-----------------------------------------|
-----------------------------------------|
--1~---------3~-----5~------8-8-8--15\---|


Repeat Chorus 5x, Slowly Fade

            
            
Suggest correction
Creating personal tab
Creating personal tab
You can edit any tab online and save it as your Personal.

You can edit, replace or remove any tab part or add personal notes – all changes will be seen only by you.

Personal tabs can be accessed anytime from any device, even offline.
Learn more »
comments
print report bad tab
4 comments total. Showing first comments.
0 reply
mattw36 10 Aug 19, 2006 03:05 PM

Dude you have exceeded yourself here.This is awesome.

0 reply
cardwell 10 Dec 04, 2006 10:23 AM

this couldnt be more wrong, all you did is copied the guitar tab haha also theres more to the interlude than you put in and a bass fill at the end of it, listen to the song instead of copying the guitar tab mate!

0 reply
recklessnick 627 Jun 02, 2007 04:54 AM

this tab sucks balls

guest
You may want to rate the tab now too:
select rating
Wanna post a correction for this tab? Suggest correction