Oops, an error
Loading. Please wait.

Rose Of Sharyn Tab

version 2
98,257 views 144 this week
37 commentsread comments
1 2 3 4 5
accurate
x 36
add to favorites
launch autoscroll
font size
0
reset
how to read this tab
guitar tuner
Autoscroll
slow
fast
+/-
esc
set tempo
stop
Help us to improve Ultimate-Guitar.com Take our survey!
×
[Intro/Verse] 

(Both Guitars)
D|-----|-----------------------------------------------------------------|
A|-----|-----------------------------------------------------------------|
F|-----|-----------------------------------------------------------------|
C|-----|--------------8-7-----------------------------8-7h8p7------------|
G|-12\-|0-------------6-5----------1---0-----------0---------7h8p7-------|
C|-12\-|0-0-0-0-0-0-0--0-0-0-0-0-0-1-0-0-0-0-0-0-0-0--------------8h10p8-|
PM        . . . . . .  . . . . . .   .   . . . . . 


[Interlude 1]

(Both Guitars)
D|----------------------------------------------------------------|
A|----------------------------------------------------------------|
F|----------------------------------------------------------------|
C|-------------------------------------------------------10----10-|
G|--5-7-8--5-7-8--5-7-8--5-7-8--5-7-8--5-7-8--5-7-8--7-8---7-8----|
C|-0-0-0--0-0-0--8-8-8--5-5-5--0-0-0--0-0-0--8-8-8----------------|
PM . . .  . . .  . . .  . . .  . . .  . . .  . . .   . .   . .
D|--------------------------------------------------------------|
A|--------------------------------------------------------------|
F|--------------------------------------------------------------|
C|------------------------------------------------------10--7\\-|
G|--5-7-8--5-7-8--5-7-8--5-7-8--5-7-8--5-7-8--5-7-8--7-8----7\\-|
C|-0-0-0--0-0-0--8-8-8--5-5-5--0-0-0--0-0-0--8-8-8----------7\\-|
PM . . .  . . .  . . .  . . .  . . .  . . .  . . .   . . 


[Pre-Chorus]

Gtr.1
D|--------------------------------------------------------------|
A|--------------------------------------------------------------|
F|--------------------------------------------------------------|
C|-1------------------------------3-----------------------------|
G|-1-1-1-1-1-1-1-1-1-1-1-1-1-1-1--3-3-3-3-3-3-3-3-3-3-3-3-3-3-3-|
C|-1-1-1-1-1-1-1-1-1-1-1-1-1-1-1--3-3-3-3-3-3-3-3-3-3-3-3-3-3-3-|
PM   . . . . . . . . . . . . . .    . . . . . . . . . . . . . . 
D|-----------------------------------------------------------|
A|-----------------------------------------------------------|
F|-----------------------------------------------------------|
C|-5------------------------------8---------------8-8----3-3-|
G|-5-5-5-5-5-5-5-5-5-5-5-5-5-5-5--8-8-8-8-8-8-8-8-8-8-8--3-3-|
C|-5-5-5-5-5-5-5-5-5-5-5-5-5-5-5--8-8-8-8-8-8-8-8-8-8-8--3-3-|
PM   . . . . . . . . . . . . . .    . . . . . . .     .

Gtr.2 (repeat as many times as needed)
D|---------------------------------|
A|---------------------------------|
F|-8-8-8-8-8-8-8-8-8-8-8-8-8-8-8-8-|
C|-x-x-x-x-x-x-x-x-x-x-x-x-x-x-x-x-|
G|-6-6-6-6-6-6-6-6-6-6-6-6-6-6-6-6-|
C|---------------------------------|
PM . . . . . . . .       . . 


[Verse]

Gtr.1
D|-----------------------------------------------------------------|
A|-----------------------------------------------------------------|
F|----------------------------------------------8-7h8p7------------|
C|---------------8-7-----------------------------------7h8p7-------|
G|-0-------------6-5----------1---0-----------0-------------8h10p8-|
C|-0-0-0-0-0-0-0--0-0-0-0-0-0-1-0-0-0-0-0-0-0-0--------------------|
PM   . . . . . .  . . . . . .   .   . . . . . 

Gtr. 2
D|-----------------------------------------------------------------|
A|-----------------------------------------------------------------|
F|-----------------------------------------------------------------|
C|--------------8-7-----------------------------8-7h8p7------------|
G|0-------------6-5----------1---0-----------0---------7h8p7-------|
C|0-0-0-0-0-0-0--0-0-0-0-0-0-1-0-0-0-0-0-0-0-0--------------8h10p8-|
PM  . . . . . .  . . . . . .   .   . . . . .


[Interlude 1]

(Both Guitars)
D|----------------------------------------------------------------|
A|----------------------------------------------------------------|
F|----------------------------------------------------------------|
C|-------------------------------------------------------10----10-|
G|--5-7-8--5-7-8--5-7-8--5-7-8--5-7-8--5-7-8--5-7-8--7-8---7-8----|
C|-0-0-0--0-0-0--8-8-8--5-5-5--0-0-0--0-0-0--8-8-8----------------|
PM . . .  . . .  . . .  . . .  . . .  . . .  . . .   . .   . .
D|---------------------------------------------------------------|
A|---------------------------------------------------------------|
F|---------------------------------------------------------------|
C|-------------------------------------------------------10--7\\-|
G|--5-7-8--5-7-8--5-7-8--5-7-8--5-7-8--5-7-8--5-7-8--7-8-----7\\-|
C|-0-0-0--0-0-0--8-8-8--5-5-5--0-0-0--0-0-0--8-8-8-----------7\\-|
PM . . .  . . .  . . .  . . .  . . .  . . .  . . .   . . 


[Pre-Chorus]

Gtr.1
D|-------------------------------------------------------------|
A|-------------------------------------------------------------|
F|-------------------------------------------------------------|
C|-1-----------------------------3-----------------------------|
G|-1-1-1-1-1-1-1-1-1-1-1-1-1-1-1-3-3-3-3-3-3-3-3-3-3-3-3-3-3-3-|
C|-1-1-1-1-1-1-1-1-1-1-1-1-1-1-1-3-3-3-3-3-3-3-3-3-3-3-3-3-3-3-|
PM   . . . . . . . . . . . . . .   . . . . . . . . . . . . . . 
D|---------------------------------------------------------|
A|---------------------------------------------------------|
F|---------------------------------------------------------|
C|-5-----------------------------8---------------8-8---3-3-|
G|-5-5-5-5-5-5-5-5-5-5-5-5-5-5-5-8-8-8-8-8-8-8-8-8-8-8-3-3-|
C|-5-5-5-5-5-5-5-5-5-5-5-5-5-5-5-8-8-8-8-8-8-8-8-8-8-8-3-3-|
PM   . . . . . . . . . . . . . .   . . . . . . .     .   


[Pre-Chorus]

Gtr.2
D|-----------------------------------------------------------------------------|
A|-----------------------------------------------------------------------------|
F|-8-8-8-8-8-8-8-8-8-8-8-8-8-8-8--10-10-10-10-10-10-10-10-10-10-10-10-10-10-10-|
C|-x-x-x-x-x-x-x-x-x-x-x-x-x-x-x--x--x--x--x--x--x--x--x--x--x--x--x--x--x--x--|
G|-6-6-6-6-6-6-6-6-6-6-6-6-6-6-6--8--8--8--8--8--8--8--8--8--8--8--8--8--8--8--|
C|-----------------------------------------------------------------------------|

D|-----------------------------------------------------------------------------|
A|-----------------------------------------------------------------------------|
F|-7-7-7-7-7-7-7-7-7-7-7-7-7-7-7--10-10-10-10-10-10-10-10-10-10-10-10-10-10-10-|
C|-x-x-x-x-x-x-x-x-x-x-x-x-x-x-x--x--x--x--x--x--x--x--x--x--x--x--x--x--x--x--|
G|-5-5-5-5-5-5-5-5-5-5-5-5-5-5-5--8--8--8--8--8--8--8--8--8--8--8--8--8--8--8--|
C|-----------------------------------------------------------------------------|


[Chorus]

(Both Guitars)
D|---------------------------------------------------------------------------------|
A|---------------------------------------------------------------------------------|
F|---------------------------------------------------------------------------------|
C|-1---8-7-8-7-5-7\---3---8-7-8-7-5-7\---5----8-0-0-5----8-0-0-8----8-0-0-5--0-0-3-|
G|-1-------------7\---3-------------7\---5---7--0-0-5---7--0-0-8---7--0-0-5--0-0-3-|
C|-1--0-0-0-0-0--7\---3--0-0-0-0-0--7\---5--0---0-0-5--0---0-0-8--0---0-0-5--0-0-3-|
PM    . . . . .          . . . . .          . .  . .   . . . .    . . . .    . .


[Interlude 2]

Gtr. 1 (Listen to song for timing)
D|-6--------|
A|--6--6--6-|
F|---5--5---|
C|----------|
G|----------|
C|----------|


[Interlude 2] 

Gtr. 2 (Let notes ring)
D|-----------------------------------------------------|
A|-----------------------------------------------------|
F|-----------------------------------------------------|
C|-----------------------------------------------------|
G|-----------------------------------------------------|
C|-1------------3------------5------------8------------|
 

[Chorus]

(Both Guitars)
D|---------------------------------------------------------------------------------|
A|---------------------------------------------------------------------------------|
F|---------------------------------------------------------------------------------|
C|-1---8-7-8-7-5-7\---3---8-7-8-7-5-7\---5----8-0-0-5----8-0-0-8----8-0-0-5--0-0-3-|
G|-1-------------7\---3-------------7\---5---7--0-0-5---7--0-0-8---7--0-0-5--0-0-3-|
C|-1--0-0-0-0-0--7\---3--0-0-0-0-0--7\---5--0---0-0-5--0---0-0-8--0---0-0-5--0-0-3-|
PM    . . . . .          . . . . .          . . . .    . . . .    . . . .    . .

************************************

| x  Dead note
| h  Hammer-on
| p  Pull-off
| \  Slide down

************************************
Suggest correction
comments
print report bad tab
37 comments total. Showing first comments.
0 reply
justbreathing10 155 wrote on May 22 2004, 12:00 am

thank you funerforafriend for stealing this tab from me. i posted it on mxtabs.net

0 reply
funeralforafrie 1,589 wrote on May 22 2004, 12:00 am

Did you really? Did you happen to post This Letter aswell? I was hoping to find out who took that one.

0 reply
funeralforafrie 1,589 wrote on May 22 2004, 12:00 am

Oh suprise suprise, there is this tab :O, isn't that a coincidence, the day you sign up, magically one of your tabs gets stolen!...I think it could be the other way around.

guest
You may want to rate the tab now too:
select rating
Wanna post a correction for this tab? Suggest correction