Oops, an error
Loading. Please wait.
We have an official Rose Of Sharyn tab made by UG professional guitarists. Check out the tab »
×
6,935 views 3 this week
3 commentsread comments
1 2 3 4 5
x 5
add to favorites
×
Save as Personal and add changes to this tab that will be seen only by you. Learn more ›
×
You can save this tab as Personal to edit and correct it or add notes. All changes will be seen only by you. Learn more »
launch autoscroll
font size
0
reset
guitar tuner
backing track
0:00
0:00
edit
Autoscroll
slow
fast
+/-
esc
set tempo
stop
-------------------------------------------------------------------------------
			ROSE OF SHARYN - Killswitch Engage
-------------------------------------------------------------------------------

Tabbed By : Nicholas Wong
e-mail: bulletforthelamentedsoul@hotmail.com

Tuning: DROPPED C

Verse "NUMB..." x4
|----------------------------------------------------------------------------|
|----------------------------------------------------------------------------|
|----------------------------------------------------------------------------|
|-12\0-0-0-0-0-0-0-0-13-0-12-0-0-0-0-0-1-0-0-0-0-0-0-0-0-8-8-8-8-10-10-10-10-|

Bridge 1 (Intrumental) X2
|---------------------------------------------------------------------------|
|---------------------------------------------------------------------------|
|---------------------------------------------------------------------------|
|-0-0-0-0-0-0-0-0-0-0-0-0-0-0-0-0-8-8-8-8-8-8-8-8-5-5-5-5-5-5-5-5-----------|

|---------------------------------------------------------------------------|
|---------------------------------------------------------------------------|
|---------------------------------------------------------------------------|
|-0-0-0-0-0-0-0-0-0-0-0-0-0-0-0-0-8-8-8-8-8-8-8-8-10-10-10-10-10-10-10-10---|

Bridge 2 "What would i give..." X2
|-----------------------------------------------------------------|
|-----------------------------------------------------------------|
|-----------------------------------------------------------------|
|-1-1-1-1-1-1-1-1-1-1-1-1-1-1-1-1-3-3-3-3-3-3-3-3-3-3-3-3-3-3-3-3-|

|------------------------------------------------------------------|
|------------------------------------------------------------------|
|------------------------------------------------------------------|
|-5-5-5-5-5-5-5-5-5-5-5-5-5-5-5-5-8-8-8-8-8-8-8-8-8-8-8-8-0-3-3-0-1|

then play...

versex4
bridge

Chorus "It wont be long..." x2
|-----------------------------------------------------------------|
|-----------------------------------------------------------------|
|-----------------------------------------------------------------|
|-1-1-1-1-1-1-1-1-1-1-1-1-1-1-1-1-3-3-3-3-3-3-3-3-3-3-3-3-3-3-3-3-|

|------------------------------------------------------------------|
|------------------------------------------------------------------|
|------------------------------------------------------------------|
|-5-5-5-5-5-5-5-5-5-5-5-5-5-5-5-5-8-8-8-8-8-8-8-8-8-8-8-8-0-3-3-0-1|

Interlude "I mourn for those..." 
|---------------------------------------------------------------------------|
|---------------------------------------------------------------------------|
|---------------------------------------------------------------------------|
|-1~--3~--5~--8~--1~--3~--5~--8~--8\----------------------------------------|

then play the chorus four times

| /  slide up
| \  slide down
| h  hammer-on
| p  pull-off
| ~  vibrato
| +  harmonic
| x  Mute note
===============================================================================

            
            
Suggest correction
Creating personal tab
Creating personal tab
You can edit any tab online and save it as your Personal.

You can edit, replace or remove any tab part or add personal notes – all changes will be seen only by you.

Personal tabs can be accessed anytime from any device, even offline.
Learn more »
comments
print report bad tab
3 comments total.
-1 reply
Killswitch31 31 Jun 06, 2007 06:15 PM

If your going to tell me why my tab is bad, give a reason, instead of just saying "it sucks balls".

-1 reply
Killswitch31 31 Jun 06, 2007 06:15 PM

This tab sucks balls.

0 reply
oyahduffman 73 Jul 03, 2009 10:53 AM

wtf r u talking about killswitch31 this tab is perfect sounds just like it and y r u talking to urself on here loser.

guest
You may want to rate the tab now too:
select rating
Wanna post a correction for this tab? Suggest correction