Oops, an error
Loading. Please wait.
We have an official Rose Of Sharyn tab made by UG professional guitarists. Check out the tab »
×
5,501 views 3 this week
no commentswrite comment
1 2 3 4 5
x 3
add to favorites
×
Save as Personal and add changes to this tab that will be seen only by you. Learn more ›
×
You can save this tab as Personal to edit and correct it or add notes. All changes will be seen only by you. Learn more »
launch autoscroll
font size
0
reset
guitar tuner
backing track
0:00
0:00
edit
Autoscroll
slow
fast
+/-
esc
set tempo
stop
-------------------------------------------------------------------------------
		      Rose of Sharyn - Killswitch Engage
-------------------------------------------------------------------------------

Tabbed By : Kergash
e-mail: h_bjerkg@live.no

Tuning: Drop C

Im submitting this because none of the basstabs out for this song is up to 
par with what Mike D really plays during the song. This is more right than 
the other tabs, atleast this is what I've gotten out of the live versions 
of the song, and what I can hear by myself during the song.

Intro/1st Verse:
F|---------------------------------------------------------------------------| Do this just once.
C|---------------------------------------------------------------------------|
G|----------5-6---------------111-3333---------------------------------------|
C|12\0000000-0--0000010-00000------------------------------------------------|

F|---------------------------------------------------------------------------|
C|---------------------------------------------------------------------------|Then this one 
G|-------5-6---------------111-3333------------------------------------------|three times.
C|0000000-0--0000010-00000---------------------------------------------------|x3

Pre-Chorus:
F|---------------------------------------------------------------------------|
C|---------------------------------------------------------------------------|
G|-----------------11111111---------------------------11111111-33333333------|
C|0000000000000000----------55555555-0000000000000000------------------------|x2

Chorus:
F|---------------------------------------------------------------------------|
C|---------------------------------------------------------------------------|
G|---------------------------------------------------------------------------|
C|12\111111111111111-3333333333333333-5555555555555555-88888888880330--------|

F|---------------------------------------------------------------------------|
C|---------------------------------------------------------------------------|
G|---------------------------------------------------------------------------|
C|1111111111111111-3333333333333333-5555555555555555-8888888888-12\0---------|

2nd Verse:
F|---------------------------------------------------------------------------|
C|---------------------------------------------------------------------------|
G|-------5-6---------------111-3333------------------------------------------|
C|0000000-0--0000010-00000---------------------------------------------------|x4

Pre-Chorus:
F|---------------------------------------------------------------------------|
C|---------------------------------------------------------------------------|
G|-----------------11111111---------------------------11111111-33333333------|
C|0000000000000000----------55555555-0000000000000000------------------------|x2

Chorus:
F|---------------------------------------------------------------------------|
C|---------------------------------------------------------------------------|
G|---------------------------------------------------------------------------|
C|12\111111111111111-3333333333333333-5555555555555555-88888888880330--------|

F|---------------------------------------------------------------------------|
C|---------------------------------------------------------------------------|
G|---------------------------------------------------------------------------|
C|1111111111111111-3333333333333333-5555555555555555-8888888888-12\0---------|

Extended Chorus:
F|---------------------------------------------------------------------------|
C|---------------------------------------------------------------------------|
G|----------3-----------3----------------------------------------------------|
C|111111-3h5--333333-3h5--555555555-88888-880330-----------------------------|x2

Interlude:
F|---------------------------------------------------------------------------|
C|----1-------3------5-----8------1------3------5--------8-------------------|
G|--1-------3------5-----8------1------3------5-------8----------------------|
C|1-------3------5-----8------1------3------5------8----------12\0-----------|

Extended Chorus: This is basically played to the end of the song, where it fades out.
F|---------------------------------------------------------------------------| Which is about 
C|---------------------------------------------------------------------------| five or six times. 
G|----------3-----------3----------------------------------------------------|
C|111111-3h5--333333-3h5--555555555-88888-880330-----------------------------|x5


| r  let ring
| /  slide up
| \  slide down
| h  hammer-on
| p  pull-off
| ~  vibrato
| +  harmonic
| x  Mute note
===============================================================================

            
            
Suggest correction
Creating personal tab
Creating personal tab
You can edit any tab online and save it as your Personal.

You can edit, replace or remove any tab part or add personal notes – all changes will be seen only by you.

Personal tabs can be accessed anytime from any device, even offline.
Learn more »
Give kudos to tab author, rate the tab!
1 2 3 4 5
comments
print report bad tab
guest
You may want to rate the tab now too:
select rating
Wanna post a correction for this tab? Suggest correction