Oops, an error
Loading. Please wait.
We have an official Rose Of Sharyn tab made by UG professional guitarists. Check out the tab »
×
27,302 views 36 this week
21 commentsread comments
1 2 3 4 5
x 22
add to favorites
×
Save as Personal and add changes to this tab that will be seen only by you. Learn more ›
×
You can save this tab as Personal to edit and correct it or add notes. All changes will be seen only by you. Learn more »
launch autoscroll
font size
0
reset
how to read this tab
guitar tuner
backing track
0:00
0:00
edit
Autoscroll
slow
fast
+/-
esc
set tempo
stop
Band: Killswitch Engage
Song: Rose of Sharyn
Album: The End of Heartache
Track: 4
Tuning: Drop C
Tabbed by: gigson111

Nobody has the whole tab right so I decided to make it myself...even in the 5 star one 
are at least half of the song wrong.

THIS IS GUITAR ONE ONLY!

P.M.- Palm Mute
h   - Hammer on
p   - Pull off
/  \- Slide
[ ] - Pinch harmonic + vibrato
~   - Let Ring

D|-----------------------------------------------------------------------|
A|-----------------------------------------------------------------------|
F|-----------------------------------------------------------------------|
C|--------------------8---7--------------------------7-7h8p7-------------|
G|-10\--0-------------6---5----------1---0---------------------7h8p7-----|
C|-10\--0-0-0-0-0-0-0---0--0-0-0-0-0-1-0-0-0-0-0-0-0-----------------7\10|
P.M.      . . . . . .   .  . . . . .   .   . . . . .

D|-----------------------------------------------------------------------|
A|-----------------------------------------------------------------------|
F|-----------------------------------------------------------------------|
C|--------------------8---7--------------------------7-7h8p7-------------|
G|-10\--0-------------6---5----------1---0---------------------7h8p7-----|
C|-10\--0-0-0-0-0-0-0---0--0-0-0-0-0-1-0-0-0-0-0-0-0-----------------7\10|
P.M.      . . . . . .   .  . . . . .   .   . . . . .

D|-------------------------------------------------------------------------|
A|-------------------------------------------------------------------------|
F|-------------------------------------------------------------------------|
C|-----------------10---8-----------8---7-------------10-10h12p10----------|
G|---0-------------10---8-----------6---5-------------------------10h12p10-|
C|---0-0-0-0-0-0-0----0---0-0-0-0-0---0---0-0-0-0-0-0----------------------|
P.M.   . . . . . .    .   . . . . .   .   . . . . . .

D|-------|
A|-------|
F|-------|
C|-------|
G|-------|
C|-10\14-|

D|-------------------------------------------------------------------------|
A|-------------------------------------------------------------------------|
F|-------------------------------------------------------------------------|
C|-----------------10---8-----------8---7-------------10-10h12p10----------|
G|---0-------------10---8-----------6---5-------------------------10h12p10-|
C|---0-0-0-0-0-0-0----0---0-0-0-0-0---0---0-0-0-0-0-0----------------------|
P.M.   . . . . . .    .   . . . . .   .   . . . . . .

D|-------|
A|-------|
F|-------|
C|-------|
G|-------|
C|-10\14-|

D|--------------------------------------------------------|
A|--------------------------------------------------------|
F|--------------------------------------------------------|
C|--------------------------------------------------------|
G|-------5---7---8---5---7---8---5---7---8---5---7---8----|
C|-----0---0---0---0---0---0---8---8---8---5---5---5------|
P.M.   .   .   .   .   .   .   .   .   .   .   .   .

D|-----------------------------------------------------------|
A|-----------------------------------------------------------|
F|-----------------------------------------------------------|
C|------------------------------------------------10-----10--|
G|-------5---7---8---5---7---8---5---7---8----7-8----7-8-----|
C|-----0---0---0---0---0---0---8---8---8---------------------|
P.M.   .   .   .   .   .   .   .   .   .      . .    . .

D|--------------------------------------------------------|
A|--------------------------------------------------------|
F|--------------------------------------------------------|
C|--------------------------------------------------------|
G|-------5---7---8---5---7---8---5---7---8---5---7---8----|
C|-----0---0---0---0---0---0---8---8---8---5---5---5------|
P.M.   .   .   .   .   .   .   .   .   .   .   .   .

D|-----------------------------------------------------------|
A|-----------------------------------------------------------|
F|-----------------------------------------------------------|
C|------------------------------------------------10-----10/-|
G|-------5---7---8---5---7---8---5---7---8----7-8----7-8-10/-|
C|-----0---0---0---0---0---0---8---8---8-----------------10/-|
P.M.   .   .   .   .   .   .   .   .   .      . .    . .

D|------------------------------------------------------------------------|
A|------------------------------------------------------------------------|
F|------------------------------------------------------------------------|
C|---1---------------3---------------5---------------8--------------------|
G|---1-1-1-1-1-1-1-1-3-3-3-3-3-3-3-3-5-5-5-5-5-5-5-5-8-8-8-8-8-8-8-3-3-3--|
C|---1-1-1-1-1-1-1-1-3-3-3-3-3-3-3-3-5-5-5-5-5-5-5-5-8-8-8-8-8-8-8-3-3-3--|
P.M.   . . . . . . .   . . . . . . .   . . . . . . .   . . .

D|------------------------------------------------------------------------|
A|------------------------------------------------------------------------|
F|------------------------------------------------------------------------|
C|---1---------------3---------------5---------------8--------------------|
G|---1-1-1-1-1-1-1-1-3-3-3-3-3-3-3-3-5-5-5-5-5-5-5-5-8-8-8--////////////--|
C|---1-1-1-1-1-1-1-1-3-3-3-3-3-3-3-3-5-5-5-5-5-5-5-5-8-8-8--////////////--|
P.M.   . . . . . . .   . . . . . . .   . . . . . . .   . .    Pick Scrape

D|-----------------------------------------------------------------------|
A|-----------------------------------------------------------------------|
F|-----------------------------------------------------------------------|
C|-----------------10---8-----------8---7-------------7-7h8p7------------|
G|---0-------------10---8-----------6---5---------------------7h8p7------|
C|---0-0-0-0-0-0-0----0---0-0-0-0-0---0---0-0-0-0-0-0----------------7\10|
P.M.   . . . . . .    .   . . . . .   .   . . . . . .

D|------------------------------------------------------------------|
A|------------------------------------------------------------------|
F|------------------------------------------------------------------|
C|-----------------10---8-----------8---7-------------7-7h8p7-[7]---|
G|---0-------------10---8-----------6---5---------------------------|
C|---0-0-0-0-0-0-0----0---0-0-0-0-0---0---0-0-0-0-0-0---------------|
P.M.   . . . . . .    .   . . . . .   .   . . . . . .

D|-------------------------------------------------------------------------|
A|-------------------------------------------------------------------------|
F|-------------------------------------------------------------------------|
C|-----------------10---8-----------8---7-------------10-10h12p10----------|
G|---0-------------10---8-----------6---5-------------------------10h12p10-|
C|---0-0-0-0-0-0-0----0---0-0-0-0-0---0---0-0-0-0-0-0----------------------|
P.M.   . . . . . .    .   . . . . .   .   . . . . . .

D|-------|
A|-------|
F|-------|
C|-------|
G|-------|
C|-10\14-|

D|-------------------------------------------------------------------------|
A|-------------------------------------------------------------------------|
F|-------------------------------------------------------------------------|
C|-----------------10---8-----------8---7-------------10-10h12p10----------|
G|---0-------------10---8-----------6---5-------------------------10h12p10-|
C|---0-0-0-0-0-0-0----0---0-0-0-0-0---0---0-0-0-0-0-0----------------------|
P.M.   . . . . . .    .   . . . . .   .   . . . . . .

D|-------|
A|-------|
F|-------|
C|-------|
G|-------|
C|-10\14-|

D|--------------------------------------------------------|
A|--------------------------------------------------------|
F|--------------------------------------------------------|
C|--------------------------------------------------------|
G|-------5---7---8---5---7---8---5---7---8---5---7---8----|
C|-----0---0---0---0---0---0---8---8---8---5---5---5------|
P.M.   .   .   .   .   .   .   .   .   .   .   .   .

D|-----------------------------------------------------------|
A|-----------------------------------------------------------|
F|-----------------------------------------------------------|
C|------------------------------------------------10-----10--|
G|-------5---7---8---5---7---8---5---7---8----7-8----7-8-----|
C|-----0---0---0---0---0---0---8---8---8---------------------|
P.M.   .   .   .   .   .   .   .   .   .      . .    . .

D|--------------------------------------------------------|
A|--------------------------------------------------------|
F|--------------------------------------------------------|
C|--------------------------------------------------------|
G|-------5---7---8---5---7---8---5---7---8---5---7---8----|
C|-----0---0---0---0---0---0---8---8---8---5---5---5------|
P.M.   .   .   .   .   .   .   .   .   .   .   .   .

D|-----------------------------------------------------------|
A|-----------------------------------------------------------|
F|-----------------------------------------------------------|
C|------------------------------------------------10-----10/-|
G|-------5---7---8---5---7---8---5---7---8----7-8----7-8-10/-|
C|-----0---0---0---0---0---0---8---8---8-----------------10/-|
P.M.   .   .   .   .   .   .   .   .   .      . .    . .

D|------------------------------------------------------------------------|
A|------------------------------------------------------------------------|
F|------------------------------------------------------------------------|
C|---1---------------3---------------5---------------8--------------------|
G|---1-1-1-1-1-1-1-1-3-3-3-3-3-3-3-3-5-5-5-5-5-5-5-5-8-8-8-8-8-8-8-3-3-3--|
C|---1-1-1-1-1-1-1-1-3-3-3-3-3-3-3-3-5-5-5-5-5-5-5-5-8-8-8-8-8-8-8-3-3-3--|
P.M.   . . . . . . .   . . . . . . .   . . . . . . .    . . .

D|------------------------------------------------------------------------|
A|------------------------------------------------------------------------|
F|------------------------------------------------------------------------|
C|---1---------------3---------------5---------------8--------------------|
G|---1-1-1-1-1-1-1-1-3-3-3-3-3-3-3-3-5-5-5-5-5-5-5-5-8-8-8--////////////--|
C|---1-1-1-1-1-1-1-1-3-3-3-3-3-3-3-3-5-5-5-5-5-5-5-5-8-8-8--////////////--|
P.M.   . . . . . . .   . . . . . . .   . . . . . . .   . .    Pick Scrape

D|-------------------------------------------------------------------------|
A|-------------------------------------------------------------------------|
F|-------------------------------------------------------------------------|
C|---1---5---3---1-------1------3---7---5---3-------------5------8---------|
G|---1---------------5-------5--3---------------6---5---6-5----7---7-------|
C|---1-1---1---1---1---1---1----3-3---3---3---3---3---3---5--5-------5-----|
P.M.   .   .   .   .   .   .      .   .   .   .   .   .      . .   . .

D|-----------------------------------------|
A|-----------------------------------------|
F|-----------------------------------------|
C|---5-----8-----8-----8------8-8-8--3-3-3-|
G|---5---7---7---8---8---8----8-8-8--3-3-3-|
C|---5-5-------5-8-8-------8--8-8-8--3-3-3-|
P.M.   . .   . .   . .   . .

D|-------------------------------------------------------------------------|
A|-------------------------------------------------------------------------|
F|-------------------------------------------------------------------------|
C|---1---5---3---1-------1------3---7---5---3-------------5------8---------|
G|---1---------------5-------5--3---------------6---5---6-5----7---7-------|
C|---1-1---1---1---1---1---1----3-3---3---3---3---3---3---5--5-------5-----|
P.M.   .   .   .   .   .   .      .   .   .   .   .   .      . .   . .

D|-----------------------------------------|
A|-----------------------------------------|
F|-----------------------------------------|
C|---5-----8-----8-----8------8-8-8--3-3-3-|
G|---5---7---7---8---8---8----8-8-8--3-3-3-|
C|---5-5-------5-8-8-------8--8-8-8--3-3-3-|
P.M.   . .   . .   . .   . .

D|----------------|
A|----------------|
F|----------------|
C|----------------|
G|-1~-3~-5~-8~----|
C|-1~-3~-5~-8~----|

D|-------------------------|
A|-------------------------|
F|-------------------------|
C|-------------8-8-8-3-3-3-|
G|-1~-3~-5~-8~-8-8-8-3-3-3-|
C|-1~-3~-5~-8~-8-8-8-3-3-3-|

D|-------------------------------------------------------------------------|
A|-------------------------------------------------------------------------|
F|-------------------------------------------------------------------------|
C|---1---5---3---1-------1------3---7---5---3-------------5------8---------|
G|---1---------------5-------5--3---------------6---5---6-5----7---7-------|
C|---1-1---1---1---1---1---1----3-3---3---3---3---3---3---5--5-------5-----|
P.M.   .   .   .   .   .   .      .   .   .   .   .   .      . .   . .

D|-----------------------------------------|
A|-----------------------------------------|
F|-----------------------------------------|
C|---5-----8-----8-----8------8-8-8--3-3-3-|
G|---5---7---7---8---8---8----8-8-8--3-3-3-|
C|---5-5-------5-8-8-------8--8-8-8--3-3-3-|
P.M.   . .   . .   . .   . .

Until the end you fade out.
Suggest correction
Creating personal tab
Creating personal tab
You can edit any tab online and save it as your Personal.

You can edit, replace or remove any tab part or add personal notes – all changes will be seen only by you.

Personal tabs can be accessed anytime from any device, even offline.
Learn more »
comments
print report bad tab
21 comments total. Showing first comments.
-2 reply
metalhedseven 10 Nov 28, 2006 03:27 AM

yours was a shit load more wrong than the 5 star one, which of course, was right.

-1 reply
gigson111 143 Nov 28, 2006 12:29 PM

hey ******* i dont think so...the intro...the 3rd and fourth time is right because it gets higher you faggot, the chorus...holy shit that was soooo wrong mine is the right friggen one and ur friend probably got u to rate this shit but i dont care because i live center my life around the internet, but this is the right so ur gay, this tab is right. Lets c u try to tab a friggen song. and after the prechorus i did screw in righting it...it is the first part of the intro but must be half deaf to tell me this is wrong and the 5 star one is right.

+1 reply
Ibanez_723 10 Dec 10, 2006 03:14 PM

holy **** all these tabs suck

guest
You may want to rate the tab now too:
select rating
Wanna post a correction for this tab? Suggest correction