Oops, an error
Loading. Please wait.

Self Revolution Tab

version 1
version 1

Whole song

Interactive

18,154 views 6 this week
3 commentsread comments
1 2 3 4 5
x 19
add to favorites
launch autoscroll
font size
0
reset
how to read this tab
guitar tuner
backing track
0:00
0:00
×
Best way to learn
"Self Revolution"
Autoscroll
slow
fast
+/-
esc
set tempo
stop
Author
Song: Self-Revolution
Killswitch Engage
Original Tabber : Fuzzy | Edited by : Teh Edster! \m/
I edited some stuff from his tab! Enjoy!

PM - Palm mute
h - Hammer on
p - Pull off
/ - Slide up
\ - Slide down
///X - Scratch string with pick
Triplets - Play the notes really fast

Drop C Tuning


Intro                               
|---------------------------------------|--------------------|
|---------------------------------------|--------------------|
|---------------------------------------|--------------------| 
|---------------------------------------|----------7h8p7-----|
|-0--0-------------------------0--0--00-|------7-8-------8-7-|
|-0--0---0-0-0-000-8-0-5-0-7---0--0--00-|-8-10---------------|

 Verse                               
|-----------------------------------------------------|--------------------|
|-----------------------------------------------------|--------------------|
|-----------------------------------------------------|--------------------| 
|-----------------------------------------------------|----------7h8p7-----|
|-5h8p5--5h8p5-----------------------5h8p5--5h8p5--00-|------7-8-------8-7-|
|-0------0-----0-0-0-000-8-0-5-0-7---0------0------00-|-8-10---------------|




Bridge
|-------------------------------------------------------------|
|-------5/6-6-6-6-6-6/10--10-10--6-6-6-6-6-6-5/6-6-6-6-6-6----|
|-------4/5-5-5-5-5-5/-9---9--9--5-5-5-5-5-5-4/5-5-5-5-5-5----| x2
|-------2/3-3-3-3-3-3/-7---7--7--3-3-3-3-3-3-2/3-3-3-3-3-3----|
|-------2/3-3-3-3-3-3/-7---7--7--3-3-3-3-3-3-2/3-3-3-3-3-3----|
|-///X--------------------------------------------------------|


Verse
|---------------------------------------------------------------|
|---------------------------------------------------------------|
|---------------------------------------------------------------| x1
|-0-2-3-0-3-2-0--2--0-2-3-0-3-2-0--3--0-2-3-0-3-2-0--3-2-0------|
|-0-2-3-0-3-2-0-----0-2-3-0-3-2-0-----0-2-3-0-3-2-0--0-0-0------|
|-0-2-3-0-3-2-0-----0-2-3-0-3-2-0-----0-2-3-0-3-2-0---------(3)-|
PM- - - - - - -     - - - - - - -     - - - - - - -


|------------------------------------------------------------|
|------------------------------------------------------------|
|------------------------------------------------------------| x1
|-0-2-3-0-3-2-0--2--0-2-3-0-3-2-0--3--0-2-3-0-3-2-0--3-2-0-0-|
|-0-2-3-0-3-2-0-----0-2-3-0-3-2-0-----0-2-3-0-3-2-0--1-0-0-0-|
|-0-2-3-0-3-2-0-----0-2-3-0-3-2-0-----0-2-3-0-3-2-0----------|
PM- - - - - - -     - - - - - - -     - - - - - - -


Verse
|---------------------------------------------------------------|
|---------------------------------------------------------------|
|---------------------------------------------------------------| x1
|-0-2-3-0-3-2-0--2--0-2-3-0-3-2-0--3--0-2-3-0-3-2-0--3-2-0------|
|-0-2-3-0-3-2-0-----0-2-3-0-3-2-0-----0-2-3-0-3-2-0--0-0-0------|
|-0-2-3-0-3-2-0-----0-2-3-0-3-2-0-----0-2-3-0-3-2-0---------(3)-|
PM- - - - - - -     - - - - - - -     - - - - - - -


|------------------------------------------------------------|
|------------------------------------------------------------|
|------------------------------------------------------------| x1
|-0-2-3-0-3-2-0--2--0-2-3-0-3-2-0--3--0-2-3-0-3-2-0--3-2-0-0-|
|-0-2-3-0-3-2-0-----0-2-3-0-3-2-0-----0-2-3-0-3-2-0--1-0-0-0-|
|-0-2-3-0-3-2-0-----0-2-3-0-3-2-0-----0-2-3-0-3-2-0----------|
PM- - - - - - -     - - - - - - -     - - - - - - -


|----------------------------------------------------------|
|----------------------------------------------------------|
|-5/7-5/7----------------------5/7-5/7---------------------| x2
|-5/7-5/7--0-0-0-0-------------5/7-5/7------------7h8p7----|
|-3/5-3/5--0-0-0-0-------------3/5-3/5--------7-8-------8-7|
|----------0-0-0-0--8-0-5-0-7------------8-10--------------|
PM         - - - -



Verse
|--------------------------------------------------------------|
|--------------------------------------------------------------|
|--------------------------------------------------------------| x1
|-0-2-3-0-3-2-0--2--0-2-3-0-3-2-0--3--0-2-3-0-3-2-0--3-2-0-----|
|-0-2-3-0-3-2-0-----0-2-3-0-3-2-0-----0-2-3-0-3-2-0--0-0-0-----|
|-0-2-3-0-3-2-0-----0-2-3-0-3-2-0-----0-2-3-0-3-2-0--------(3)-|
PM- - - - - - -     - - - - - - -     - - - - - - -


|------------------------------------------------------------|
|------------------------------------------------------------|
|------------------------------------------------------------| x1
|-0-2-3-0-3-2-0--2--0-2-3-0-3-2-0--3--0-2-3-0-3-2-0--3-2-0-0-|
|-0-2-3-0-3-2-0-----0-2-3-0-3-2-0-----0-2-3-0-3-2-0--1-0-0-0-|
|-0-2-3-0-3-2-0-----0-2-3-0-3-2-0-----0-2-3-0-3-2-0----------|
PM- - - - - - -     - - - - - - -     - - - - - - -


Verse
|---------------------------------------------------------------|
|---------------------------------------------------------------|
|---------------------------------------------------------------| x1
|-0-2-3-0-3-2-0--2--0-2-3-0-3-2-0--3--0-2-3-0-3-2-0--3-2-0------|
|-0-2-3-0-3-2-0-----0-2-3-0-3-2-0-----0-2-3-0-3-2-0--0-0-0------|
|-0-2-3-0-3-2-0-----0-2-3-0-3-2-0-----0-2-3-0-3-2-0---------(3)-|
PM- - - - - - -     - - - - - - -     - - - - - - -


|-------------------------------------------------------------------------|
|-------------------------------------------------------------------------|
|-------------------------------------------------------------------------| 
|-0-2-3-0-3-2-0--2--0-2-3-0-3-2-0--3--0-2-3-0-3-2-0-------------7h8p7-----|
|-0-2-3-0-3-2-0-----0-2-3-0-3-2-0-----0-2-3-0-3-2-0---------7-8-------8-7-|
|-0-2-3-0-3-2-0-----0-2-3-0-3-2-0-----0-2-3-0-3-2-0----8-10---------------|
PM- - - - - - -     - - - - - - -     - - - - - - -


Chorus
|---------------------------------|
|---------------------------------|
|---------------------------------| x1
|-5-5-5-5-8-8-8-8-3-3-3-3-0-0-0-0-|
|-5-5-5-5-8-8-8-8-3-3-3-3-0-0-0-0-|
|-5-5-5-5-8-8-8-8-3-3-3-3-0-0-0-0-|


|---------------------------------|
|---------------------------------|
|---------------------------------| x1
|-5-5-5-5-8-8-8-8-3-3-3-3-0-0-0-0-|
|-5-5-5-5-8-8-8-8-3-3-3-3-0-0-0-0-|
|-5-5-5-5-8-8-8-8-3-3-3-3-0-0-0-0-|



Play Very Fast
|------------------------------------------------------------------|
|------------------------------------------------------------------|
|------------------------------------------------------------------| x1
|-0-0-0--0-0-0--0-0-0--0-0-0--0-0-0--0-0-0--0-0-0--0-0-0--0-0-0--0-|
|-0-0-0--0-0-0--0-0-0--0-0-0--0-0-0--0-0-0--0-0-0--0-0-0--0-0-0--0-|
|-0-0-0--0-0-0--0-0-0--0-0-0--0-0-0--0-0-0--0-0-0--0-0-0--0-0-0--0-|
PM- - -  - - -  - - -  - - -  - - -  - - -  - - -  - - -  - - -  -


Play Vert Fast (x4)
|--------------------------------------------------------------------------|
|--------------------------------------------------------------------------|
|--------------------------------------------------------------------------| 
|-0-0-0--0-0-0--0-0-0--0-0-0--0-0-0--0-0-0--0-0-0--0-0-0--0-0-0------------|
|-0-0-0--0-0-0--0-0-0--0-0-0--0-0-0--0-0-0--0-0-0--0-0-0--0-0-0--3p1---1p0-|
|-0-0-0--0-0-0--0-0-0--0-0-0--0-0-0--0-0-0--0-0-0--0-0-0--0-0-0------0-----|
PM- - -  - - -  - - -  - - -  - - -  - - -  - - -  - - -  - - -


Not Exact Strumming Shown! Listen to the song!
|---------------------------------------------------------------------------|
|---------------------------------------------------------------------------|
|---------------------------------------------------------------------------|
|-0-0-0-0-0-0---0-0-0----------------3-3-3-3-3-3-3-3-3-3-3-3----------------|
|-0-0-0-0-0-0---0-0-0-3p1---1p0------3-3-3-3-3-3-3-3-3-3-3-3-3p1---1p0------|
|-0-0-0-0-0-0---0-0-0-----0----0-3h5-3-3-3-3-3-3-3-3-3-3-3-3-----0-----0-3h2|
PM- - - - - -   - - -     -    -     - - - - - - - - - - - -

Chorus
|---------------------------------|
|---------------------------------|
|---------------------------------| x1
|-5-5-5-5-8-8-8-8-3-3-3-3-0-0-0-0-|
|-5-5-5-5-8-8-8-8-3-3-3-3-0-0-0-0-|
|-5-5-5-5-8-8-8-8-3-3-3-3-0-0-0-0-|

|---------------------------------|
|---------------------------------|
|---------------------------------| x1
|-5-5-5-5-8-8-8-8-3-3-3-3-0-0-0-0-|
|-5-5-5-5-8-8-8-8-3-3-3-3-0-0-0-0-|
|-5-5-5-5-8-8-8-8-3-3-3-3-0-0-0-0-|

|----------------------------------------------------------|
|----------------------------------------------------------|
|-5/7-5/7----------------------5/7-5/7---------------------| x2
|-5/7-5/7--0-0-0-0-------------5/7-5/7------------7h8p7----|
|-3/5-3/5--0-0-0-0-------------3/5-3/5--------7-8-------8-7|
|----------0-0-0-0--8-0-5-0-7------------8-10--------------|
PM         - - - -

Interlude                                             
|-------------------------------------------------------|-------------------|
|-------------------------------------------------------|-------------------|
|-------------------------------------------------------|-------------------|
|-------------------------------------------------------|----------7h8p7----|
|-5h8p5--5h8p5-------------------------5h8p5--5h8p5--00-|------7-8-------8-7|
|-0------0-------0-0-0-000-8-0-5-0-7---0------0------00-|-8-10--------------|

Guitar 2 Plays This While Guitar 1 Plays ^
|----------------------------------|
|----------------------------------|
|----------------------------------|
|-0-0-0-0-0-0-0-0--0-0-0-0-0-0---0-|
|-0-0-0-0-0-0-0-0--0-0-0-0-0-0---0-|
|-0-0-0-0-0-0-0-0--0-0-0-0-0-0---0-|
PM- - - - - - - -  - - - - - -

|--------|
|--------|
|--------| x1
|-7-7-7\-|
|-5-5-5\-|
|--------|

Question? Comments? Complaints?
I3irthDefect@aol.com!
Suggest correction
comments
print report bad tab
3 comments total.
0 reply
EmoRocker19510 40 Jul 10, 2006 10:13 AM

Very nice tab. I really figure out why it only got 4 stars instead of five. Keep up the good work!

0 reply
Jax0r 31 Sep 09, 2006 03:03 AM

seems dam accuruate to me nice work

0 reply
kenneth49 16 Jan 18, 2010 04:45 PM

Intro
|---------------------------------------|--------------------|
|---------------------------------------|--------------------|
|---------------------------------------|-------------------|
|---------------------------------------|----------7h8p7-----|
|-0--0-------------------------0--0--00-|------7-8-------8-7-|
|-0--0---0-0-000-008-0-5-0-7---0--0--00-|-8-10---------------|

there's no biggy, i just couldnt get it in time right the way u had it. so i slowed down to half speed with WMP and figured this part out. it think its like that for similar sounding parts

guest
You may want to rate the tab now too:
select rating
Wanna post a correction for this tab? Suggest correction