Oops, an error
Loading. Please wait.

Starting Over bass

version 1
version 1

Whole song

3,527 views 6 this week
2 commentsread comments
1 2 3 4 5
1 last vote to show rating
add to favorites
×
Save as Personal and add changes to this tab that will be seen only by you. Learn more ›
×
You can save this tab as Personal to edit and correct it or add notes. All changes will be seen only by you. Learn more »
launch autoscroll
font size
0
reset
guitar tuner
edit
Autoscroll
slow
fast
+/-
esc
set tempo
stop
Intro:
F|----------------------------------------------------------------------------|
C|----------------------------------------------------------------------------|
G|----------------------------------------------------------------------------|
C|-3333333333333333333333333333333/2-3333333333333333/5555555555555555--------|

F|----------------------------------------------------------------------------|
C|----------------------------------------------------------------------------|
G|----------------------------------------------------------------------------|
C|-7---3---0---5---3---5------------------------------------------------------|

F|----------------------------------------------------------------------------|
C|----------------------------------------------------------------------------|
G|----------------------------------------------------------------------------|
C|-7-7-7-7-7-7-7-7-3-3-3-3-0-0-0-0-5-5-5-5-5-5-5-5-3-3-3-3-5-5-5-5------------|

Verse:
F|---------------------------------------------------------------------------|
C|---------------------------------------------------------------------------|
G|---------------------------------------------------------------------------|
C|-7-77-77-77-77-77-77-77-77-33-33-33-33-00-00-00-00-55-55-55-55-55-55-55-55-|

F|-------------------------|-2x------------------------------------------------|
C|-------------------------|---------------------------------------------------|
G|-------------------------|---------------------------------------------------|
C|-33-33-33-33-55-55-55-55-|---------------------------------------------------|

Bridge:
F|--------------------------------------------------------------------------|
C|--------------------------------------------------------------------------|
G|--------------------------------------------------------------------------|
C|-7777777777777777333333330000000055555555555555553333333355555555---------|

Chorus:
F|------------------------------------------------------------------|-2x----|
C|------------------------------------------------------------------|-------|
G|------------------------------------------------------------------|-------|
C|-3333333333333333000000000000000033333333333333337777777755555555-|-------|

Bass Solo:
F|-----------------------------------------------------------------------------|
C|-----------------------------------------------------------------------------|
G|-----------------------------------5/7---------------------------------------|
C|-3-33-3333333333-555-3-33-333-0-00-----5-55-5555555555-3-33-333-5-55-555-----|

Verse:
F|---------------------------------------------------------------------------|
C|---------------------------------------------------------------------------|
G|---------------------------------------------------------------------------|
C|-7-77-77-77-77-77-77-77-77-33-33-33-33-00-00-00-00-55-55-55-55-55-55-55-55-|

F|-------------------------|-2x------------------------------------------------|
C|-------------------------|---------------------------------------------------|
G|-------------------------|---------------------------------------------------|
C|-33-33-33-33-55-55-55-55-|---------------------------------------------------|

Pre-Chorus:
F|-------------------------------------|-2x----------------------------------------|
C|-------------------------------------|-------------------------------------------|
G|-00000000-(Really Fast)------------------|---------------------------------------|
C|--------------------8888888888888888-|-------------------------------------------|

Chorus:
F|------------------------------------------------------------------|-2x----|
C|------------------------------------------------------------------|-------|
G|------------------------------------------------------------------|-------|
C|-3333333333333333000000000000000033333333333333337777777755555555-|-------|

 Breakdown:
F|--------------------------------------|-2x----7-7/9----7-7/9---------------------| 2x
C|----9-9/10----9-9/10------------------|------------------------------------------|
G|-00--------00-------------------------|----00-------00---------------------------|
C|---------------------8888888888888888-|---------------------8888888888888888-----|

Acoustic Part:
F|------------------------------------------------------------------------------|
C|------------------------------------------------------------------------------|
G|-8---5---8--------------------------------------------------------------------|
C|-------------7---5------------------------------------------------------------|

Chorus:
F|------------------------------------------------------------------|-2x----|
C|------------------------------------------------------------------|-------|
G|------------------------------------------------------------------|-------|
C|-3333333333333333000000000000000033333333333333337777777755555555-|-------|

Outro:
F|------------------------------------------------------------------------------------|
C|------------------------------------------------------------------------------------|
G|------------------------------------------------------------------------------------|
C|-3-(Play This Until The End)---7---5---3--------------------------------------------|

            
            
Suggest correction
Creating personal tab
Creating personal tab
You can edit any tab online and save it as your Personal.

You can edit, replace or remove any tab part or add personal notes – all changes will be seen only by you.

Personal tabs can be accessed anytime from any device, even offline.
Learn more »
Give kudos to tab author, rate the tab!
1 2 3 4 5
comments
print report bad tab
2 comments total.
0 reply
Kergash 323 May 18, 2010 11:09 AM

You should fix some stuff here. The bass solo is a horseshoe-rhythm, and it has the same chord-progression as your normal verse. As in; 7 -> 3 -> 0 -> 5 on the Low C. The verse is 7-777-777-777 and not 7-77-77, just a minor thing, but should be fixed.

0 reply
ddda67 10 Oct 07, 2012 07:08 PM

great tab, but it's clean part, not acoustic part, sorry bro

guest
You may want to rate the tab now too:
select rating
Wanna post a correction for this tab? Suggest correction