Oops, an error
Loading. Please wait.

Starting Over tab

version 3
version 3

Whole song

53,229 views 6 this week
5 commentsread comments
1 2 3 4 5
x 16
add to favorites
×
Save as Personal and add changes to this tab that will be seen only by you. Learn more ›
×
You can save this tab as Personal to edit and correct it or add notes. All changes will be seen only by you. Learn more »
launch autoscroll
font size
0
reset
how to read this tab
guitar tuner
edit
Autoscroll
slow
fast
+/-
esc
set tempo
stop
Tuning: Dropped C (CGCFAD)

[Guitar 1]
[Intro]
D|------------------------------------------------------------------------------|
A|------------------------------------------------------------------------------|
F|------------------------------------------------------------------------------|
C|33333333333333333333333333332-33333333333333333/5555555555512\----------------|
G|33333333333333333333333333332-33333333333333333/5555555555512\----------------|
C|33333333333333333333333333332-33333333333333333/5555555555512\----------------|

[Bridge] x2
D|------------------------------------------------------------------------------|
A|------------------------------------------------------------------------------|
F|--------7/9--7-------------------7/9--7-------------12-10-9----9--------------|
C|7~~~5/7---------10--7/9--5~~~5/7--------10-9-10-9-7---------12---12-10--------|
G|------------------------------------------------------------------------------|
C|------------------------------------------------------------------------------|

[Main Riff] x2 
D|------------------------------------------------------------------------------|
A|----------------------------------------5-------------5-----------------------|
F|------------------------------------5-----5-------5-----5---------------------|
C|10--------------7---9---9/10-10---3---3-----3---0---0-----0-------------------|
G|7---------------7---7---7----7--3-------------0-------------------------------|
C|7-777-777-777-77--7---7---------3-------------0-------------------------------|

D|------------------------------------------------------------------------------|
A|----------------------------------------5-------------5-----------------------|
F|-----------------5---4---4/5-5------5-----5-------5-----5---------------------|
C|-----------------5---5---5---5----3---3-----3---5---5-----5-------------------|
G|5------------------0---0--------3-------------5-------------------------------|
C|5-555-555-555-55----------------3-------------5-------------------------------|

[Bridge]
D|------------------------------------------------------------------------------|
A|------------------------------------------------------------------------------|
F|--------7/9--7-------------------7/9--7-------------12-10-9----9--------------|
C|7~~~5/7---------10--7/9--5~~~5/7--------10-9-10-9-7---------12----12-10-------|
G|------------------------------------------------------------------------------|
C|------------------------------------------------------------------------------|

[Chorus] x2
D|------------------------------------------------------------------------------|
A|------------------------------------------------------------------------------|
F|------------------------------------------------------------------------------|
C|------------------------------------------------------------------------------|
G|3-33333333333333-0-00000000000000-3-33333333333333-7-7777775-555555-----------|
C|3-33333333333333-0-00000000000000-3-33333333333333-7-7777775-555555-----------|

[Bass Main Riff Solo]
(same length as guitar main riff)
D|------------------------------------------------------------------------------|
A|------------------------------------------------------------------------------|
F|------------------------------------------------------------------------------|
C|7\----------------------------------------------------------------------------|
G|------------------------------------------------------------------------------|
C|------------------------------------------------------------------------------|

[Main Riff]
D|------------------------------------------------------------------------------|
A|----------------------------------------5-------------5-----------------------|
F|------------------------------------5-----5-------5-----5---------------------|
C|10--------------7---9---9/10-10---3---3-----3---0---0-----0-------------------|
G|7---------------7---7---7----7--3-------------0-------------------------------|
C|7-777-777-777-77--7---7---------3-------------0-------------------------------|

D|------------------------------------------------------------------------------|
A|----------------------------------------5-------------5-----------------------|
F|-----------------5---4---4/5-5------5-----5-------5-----5---------------------|
C|-----------------5---5---5---5----3---3-----3---5---5-----5-------------------|
G|5------------------0---0--------3-------------5-------------------------------|
C|5-555-555-555-55----------------3-------------5-------------------------------|

[Main Riff Chords]
D|------------------------------------------------------------------------------|
A|------------------------------------------------------------------------------|
F|------------------------------------------------------------------------------|
C|7---7-7---7---7---7---7---------3---3-3---------0---0-0-----------------------|
G|7---7-7---7---7---7---7---7-7-7-3---3-3---3-3-3-0---0-0---0-0-0---------------|
C|7---7-7---7---7---7---7---7-7-7-3---3-3---3-3-3-0---0-0---0-0-0---------------|

D|------------------------------------------------------------------------------|
A|------------------------------------------------------------------------------|
F|------------------------------------------------------------------------------|
C|5---5-5---5---5---5---5---------3---3-3---------5---5-5-----------------------|
G|5---5-5---5---5---5---5---5-5-5-3---3-3---3-3-3-5---5-5---5-5-5-5-------------|
C|5---5-5---5---5---5---5---5-5-5-3---3-3---3-3-3-5---5-5---5-5-5-5-------------|

[Pre-Chorus] x2
D|------------------------------------------------------------------------------|
A|------------------------------------------------------------------------------|
F|------------------------------------------------------------------------------|
C|------2-------10--101010101010101010101010101010------------------------------|
G|0000000-------8---8-8-8-8-8-8-8-8-8-8-8-8-8-8-8-------------------------------|
C|--------------8---8-8-8-8-8-8-8-8-8-8-8-8-8-8-8-------------------------------|

[Chorus] x2
D|------------------------------------------------------------------------------|
A|------------------------------------------------------------------------------|
F|------------------------------------------------------------------------------|
C|------------------------------------------------------------------------------|
G|3-33333333333333-0-00000000000000-3-33333333333333-7-7777775-555555-----------|
C|3-33333333333333-0-00000000000000-3-33333333333333-7-7777775-555555-----------|

[Breakdown] x4
D|------------------------------------------------------------------------------|
A|------------------------------------------------------------------------------|
F|------------------------------------------------------------------------------|
C|-----9---9/10----------9---9/10---10--1010101010101010101010101010------------|
G|7--0---0------0--000-0---0------0-8---8-8-8-8-8-8-8-8-8-8-8-8-8-8-------------|
C|7---------------------------------8---8-8-8-8-8-8-8-8-8-8-8-8-8-8-------------|

[Clean Intermission] x3
D|------------------------------------------------------------------------------|
A|-------------8--------------8-------------------------------------------------|
F|--------9---------9----9---------------9--------------------------------------|
C|10---10---10---10---10---10---10-10-10----------------------------------------|
G|------------------------------------------------------------------------------|
C|------------------------------------------------------------------------------|

[Chorus/Outro] x2
D|------------------------------------------------------------------------------|
A|------------------------------------------------------------------------------|
F|------------------------------------------------------------------------------|
C|---7~~9~~---------------------------------------------------------------------|
G|12\------3-33333333333333-0-00000000000000-3-33333333333333-7-7777775-555555--|
C|12\------3-33333333333333-0-00000000000000-3-33333333333333-7-7777775-555555--|

[Last Chord]
(you have completed epicness)
D|------------------------------------------------------------------------------|
A|------------------------------------------------------------------------------|
F|------------------------------------------------------------------------------|
C|3-----------------------------------------------------------------------------|
G|3-----------------------------------------------------------------------------|
C|3-----------------------------------------------------------------------------|

[Guitar 2]
[Intro]
D|------------------------------------------------------------------------------|
A|------------------------------------------------------------------------------|
F|55555555555555555555555555554-55555555555555559/1010101010101010101010--------|
C|------------------------------------------------------------------------------|
G|33333333333333333333333333332-33333333333333337/8-8-8-8-8-8-8-8-8-8-8---------|
C|------------------------------------------------------------------------------|

[Bridge] x2
D|------------------------------------------------------------------------------|
A|----------------------------------------------------------12-10---------------|
F|----------10/12-10-9----------------10/12-10-9----9-------------12-10-12-10-9-|
C|10~~~9/10------------10/12-9~~~9/10------------12---12-10---------------------|
G|------------------------------------------------------------------------------|
C|------------------------------------------------------------------------------|

[Main Riff] x2  
D|------------------------------------------------------------------------------|
A|----------------------------------------5-------------5-----------------------|
F|------------------------------------5-----5-------5-----5---------------------|
C|10--------------7---9---9/10-10---3---3-----3---0---0-----0-------------------|
G|7---------------7---7---7----7--3-------------0-------------------------------|
C|7-777-777-777-77--7---7---------3-------------0-------------------------------|

D|------------------------------------------------------------------------------|
A|----------------------------------------5-------------5-----------------------|
F|-----------------5---4---4/5-5------5-----5-------5-----5---------------------|
C|-----------------5---5---5---5----3---3-----3---5---5-----5-------------------|
G|5------------------0---0--------3-------------5-------------------------------|
C|5-555-555-555-55----------------3-------------5-------------------------------|

[Bridge]
D|------------------------------------------------------------------------------|
A|----------------------------------------5-------------5-----------------------|
F|------------------------------------5-----5-------5-----5---------------------|
C|10--------------7---9---9/10-10---3---3-----3---0---0-----0-------------------|
G|7---------------7---7---7----7--3-------------0-------------------------------|
C|7-777-777-777-77--7---7---------3-------------0-------------------------------|

D|------------------------------------------------------------------------------|
A|----------------------------------------5-------------5-----------------------|
F|-----------------5---4---4/5-5------5-----5-------5-----5---------------------|
C|-----------------5---5---5---5----3---3-----3---5---5-----5-------------------|
G|5------------------0---0--------3-------------5-------------------------------|
C|5-555-555-555-55----------------3-------------5-------------------------------|

[Chorus Part 1 of 4] 
D|------------------------------------------------------------------------|
A|-------------8--------------8-------------------------------------------|
F|--------9------9-------9------9-------9---------------------------------|
C|10---10---10-----10-10---10-----10-10-----------------------------------|
G|------------------------------------------------------------------------|
C|------------------------------------------------------------------------|
    
[Chorus Part 2 of 4]
D|------------------------------------------------------------------------|
A|-------------6--------------6-------------------------------------------|
F|--------9------9-------9------9-------9---------------------------------|
C|10---10---10-----10-10---10-----10-10-----------------------------------|
G|------------------------------------------------------------------------|
C|------------------------------------------------------------------------|
    
[Chorus Part 3 of 4]
D|------------------------------------------------------------------------|
A|-------------8--------------8-------------------------------------------|
F|--------9------9-------9------9-------9---------------------------------|
C|10---10---10-----10-10---10-----10-10-----------------------------------|
G|------------------------------------------------------------------------|
C|------------------------------------------------------------------------|
  
[Chorus Part 4 of 4] 
D|------------------------------0-----------------------------------------|
A|------------5-------6---5---3---3---------------------------------------|
F|-------5------5---------------------------------------------------------|
C|7----7---7------5-5---5---5---------------------------------------------|
G|------------------------------------------------------------------------|
C|------------------------------------------------------------------------|
           
[Bass Main Riff Solo]
(same length as guitar main riff)
D|------------------------------------------------------------------------------|
A|------------------------------------------------------------------------------|
F|------------------------------------------------------------------------------|
C|10\---------------------------------------------------------------------------|
G|------------------------------------------------------------------------------|
C|------------------------------------------------------------------------------|

[Main Riff]
D|------------------------------------------------------------------------------|
A|----------------------------------------5-------------5-----------------------|
F|------------------------------------5-----5-------5-----5---------------------|
C|10--------------7---9---9/10-10---3---3-----3---0---0-----0-------------------|
G|7---------------7---7---7----7--3-------------0-------------------------------|
C|7-777-777-777-77--7---7---------3-------------0-------------------------------|

D|------------------------------------------------------------------------------|
A|----------------------------------------5-------------5-----------------------|
F|-----------------5---4---4/5-5------5-----5-------5-----5---------------------|
C|-----------------5---5---5---5----3---3-----3---5---5-----5-------------------|
G|5------------------0---0--------3-------------5-------------------------------|
C|5-555-555-555-55----------------3-------------5-------------------------------|

[Main Riff Chords]
D|------------------------------------------------------------------------------|
A|------------------------------------------------------------------------------|
F|9----9/12--10--12----7----9/12--12--12----------------------------------------|
C|------------------------------------------------------------------------------|
G|7----7/10--8---10----5----7/10--8---10----------------------------------------|
C|------------------------------------------------------------------------------|

[Pre-Chorus] x2
D|------------------------------------------------------------------------------|
A|------------------------------------------------------------------------------|
F|------------------------------------------------------------------------------|
C|------2-------10--101010101010101010101010101010------------------------------|
G|0000000-------8---8-8-8-8-8-8-8-8-8-8-8-8-8-8-8-------------------------------|
C|--------------8---8-8-8-8-8-8-8-8-8-8-8-8-8-8-8-------------------------------|
 
[Chorus Part 1 of 4] 
D|------------------------------------------------------------------------|
A|-------------8--------------8-------------------------------------------|
F|--------9------9-------9------9-------9---------------------------------|
C|10---10---10-----10-10---10-----10-10-----------------------------------|
G|------------------------------------------------------------------------|
C|------------------------------------------------------------------------|
    
[Chorus Part 2 of 4]
D|------------------------------------------------------------------------|
A|-------------6--------------6-------------------------------------------|
F|--------9------9-------9------9-------9---------------------------------|
C|10---10---10-----10-10---10-----10-10-----------------------------------|
G|------------------------------------------------------------------------|
C|------------------------------------------------------------------------|
    
[Chorus Part 3 of 4]
D|------------------------------------------------------------------------|
A|-------------8--------------8-------------------------------------------|
F|--------9------9-------9------9-------9---------------------------------|
C|10---10---10-----10-10---10-----10-10-----------------------------------|
G|------------------------------------------------------------------------|
C|------------------------------------------------------------------------|
  
[Chorus Part 4 of 4] 
D|------------------------------0-----------------------------------------|
A|------------5-------6---5---3---3---------------------------------------|
F|-------5------5---------------------------------------------------------|
C|7----7---7------5-5---5---5---------------------------------------------|
G|------------------------------------------------------------------------|
C|------------------------------------------------------------------------|

[Breakdown Part 1] x2
D|------------------------------------------------------------------------------|
A|------------------------------------------------------------------------------|
F|------------------------------------------------------------------------------|
C|-----9---9/10----------9---9/10---10--1010101010101010101010101010------------|
G|7--0---0------0--000-0---0------0-8---8-8-8-8-8-8-8-8-8-8-8-8-8-8-------------|
C|7---------------------------------8---8-8-8-8-8-8-8-8-8-8-8-8-8-8-------------|

[Breakdown Part 2] x2
D|------------------------------------------------------------------------------|
A|------------------------------------------------------------------------------|
F|-----7----7/9----------7----7/9-----------------------------------------------|
C|----------------------------------10--1010101010101010101010101010------------|
G|7--0---0------0--000-0---0------0-8---8-8-8-8-8-8-8-8-8-8-8-8-8-8-------------|
C|7---------------------------------8---8-8-8-8-8-8-8-8-8-8-8-8-8-8-------------|

[Clean Intermission] x3
D|------------------------------------------------------------------------------|
A|------------------------------------------------------------------------------|
F|------------------------------------------------------------------------------|
C|10-----------7------------10--------------------------------------------------|
G|8------------5------------8---------------------------------------------------|
C|------------------------------------------------------------------------------|

[Chorus Part 1 of 4] 
D|------------------------------------------------------------------------|
A|-------------8--------------8-------------------------------------------|
F|--------9------9-------9------9-------9---------------------------------|
C|10---10---10-----10-10---10-----10-10-----------------------------------|
G|------------------------------------------------------------------------|
C|------------------------------------------------------------------------|
    
[Chorus Part 2 of 4]
D|------------------------------------------------------------------------|
A|-------------6--------------6-------------------------------------------|
F|--------9------9-------9------9-------9---------------------------------|
C|10---10---10-----10-10---10-----10-10-----------------------------------|
G|------------------------------------------------------------------------|
C|------------------------------------------------------------------------|
    
[Chorus Part 3 of 4]
D|------------------------------------------------------------------------|
A|-------------8--------------8-------------------------------------------|
F|--------9------9-------9------9-------9---------------------------------|
C|10---10---10-----10-10---10-----10-10-----------------------------------|
G|------------------------------------------------------------------------|
C|------------------------------------------------------------------------|
  
[Chorus Part 4 of 4] 
D|------------------------------0-----------------------------------------|
A|------------5-------6---5---3---3---------------------------------------|
F|-------5------5---------------------------------------------------------|
C|7----7---7------5-5---5---5---------------------------------------------|
G|------------------------------------------------------------------------|
C|------------------------------------------------------------------------|

[Outro] x2
D|------------------------------------------------------------------------------|
A|------------------------------------------------------------------------------|
F|10-----12-----10-----14--12---------------------------------------------------|
C|------------------------------------------------------------------------------|
G|8------10-----8------12--10---------------------------------------------------|
C|------------------------------------------------------------------------------|

[Last Chord]
(you have completed epicness)
D|------------------------------------------------------------------------------|
A|------------------------------------------------------------------------------|
F|10----------------------------------------------------------------------------|
C|------------------------------------------------------------------------------|
G|8-----------------------------------------------------------------------------|
C|------------------------------------------------------------------------------|


************************************

| /  Slide up
| \  Slide down
| ~  Vibrato

************************************

            
            
Suggest correction
Creating personal tab
Creating personal tab
You can edit any tab online and save it as your Personal.

You can edit, replace or remove any tab part or add personal notes – all changes will be seen only by you.

Personal tabs can be accessed anytime from any device, even offline.
Learn more »
comments
print report bad tab
5 comments total. Showing first comments.
0 reply
UberBlood 10 Aug 20, 2009 07:54 PM

Awesome! I've seen all your tabs, spot on so far man!
Keep it up!

0 reply
Music=Life. 51 Sep 04, 2009 11:28 AM

Great tab! 5/5

+2 reply
iburnmyfrendz66 20 Apr 08, 2010 12:06 PM

This is a flawless tab! Great Job! 10000/5

guest
You may want to rate the tab now too:
select rating
Wanna post a correction for this tab? Suggest correction