Oops, an error
Loading. Please wait.

Still Beats Your Name bass

version 1
version 1

Whole song

Interactive

1,265 views 3 this week
2 commentsread comments
1 2 3 4 5
2 more votes to show rating
add to favorites
×
Save as Personal and add changes to this tab that will be seen only by you. Learn more ›
×
You can save this tab as Personal to edit and correct it or add notes. All changes will be seen only by you. Learn more »
launch autoscroll
font size
0
reset
guitar tuner
edit
Autoscroll
slow
fast
+/-
esc
set tempo
stop
hey this is my first tab for this site and its pretty good so have a browse :D

|------------------------------------------|
|------------------------------------------|
|------------------------------------------|
|---0------------12/0----------------------|

X2
|--------------------------------------------|
|.------------------------------------------.|
|.-565-----30-----565----131-----565-----30-.|
|-----0-0----0-0-----0-0----0-0-----0-0------|

|------------------------------------------|
|------------------------------------------|
|-565-------30-----------------------------|
|-----0-0-------0--------------------------|

X2
|--------------------------------------------|
|.------------------------------------------.|
|.-565-----30-----565----131-----565-----30-.|
|-----0-0----0-0-----0-0----0-0-----0-0------|

Pre chorus
|---------------------------------------------------------------------|
|---------------------------------------------------------------------|
|-5555555555555555-4444444444444444-----------------------------------|
|-----------------------------------7777777777777777-8888888888888888-|

Back to verse then

Then the second pre chorus goes …

|---------------------------------------------------------------------|
|---------------------------------------------------------------------|
|-5555555555555555-4444444444444444-----------------------------------|
|-----------------------------------7777777777777777-8888888888888888-|


|-----------1010101010101010--9999999999-10101010101010-|
|-7777777777--------------------------------------------|
|-------------------------------------------------------|
|-------------------------------------------------------|

Chorus
Rest for 2 bars

|---------------------|
|---------------------|
|---------------------|
|------0--------------|
X4
|----------------------------------------------------|
|----------------------------------------------------|
|----------------------------------------------------|
|--0-0--00--3--3---33----8--8--88---10---10---1010---|

Interlude
X2
|------------------------------------------------------|
|------------------------------------------------------|
|----rest------10-12-10-------rest----------7-----8----|
|------------------------------------------------------|
X2
|------------------------------------------------|
|------------------------------------------------|
|----rest-------8-10-8----rest---------7---8-----|
|------------------------------------------------|
X2
|------------------------------------------------|
|------------------------------------------------|
|------------------------------------------------|
|------3------3---------------8-------10---------|
 Then verse
Then chorus

Ending
X2
|------------------------------------------------|
|------------------------------------------------|
|------------------------------------------------|
|-0-0-0-0---0-0-0-0----8-8--88-----10--10--1010--|


            
            
Suggest correction
Creating personal tab
Creating personal tab
You can edit any tab online and save it as your Personal.

You can edit, replace or remove any tab part or add personal notes – all changes will be seen only by you.

Personal tabs can be accessed anytime from any device, even offline.
Learn more »
Give kudos to tab author, rate the tab!
1 2 3 4 5
comments
print report bad tab
2 comments total.
0 reply
Casper739 37 Jun 16, 2009 05:08 PM

cool tab

0 reply
mace200200 226 Mar 02, 2010 03:07 PM

yeah it is i wish i could rate it but it won't let me for some reason but i'd give it a 4

guest
Wanna post a correction for this tab? Suggest correction