Oops, an error
Loading. Please wait.

The End Of Heartache tab

version 1
version 1

Whole song

99,774 views 12 this week
4 commentsread comments
1 2 3 4 5
x 13
add to favorites
×
Save as Personal and add changes to this tab that will be seen only by you. Learn more ›
×
You can save this tab as Personal to edit and correct it or add notes. All changes will be seen only by you. Learn more »
launch autoscroll
font size
0
reset
how to read this tab
guitar tuner
backing track
0:00
0:00
edit
Autoscroll
slow
fast
+/-
esc
set tempo
stop
Author
[Intro]
((Guitar 1))   (x4)  Then.   (Guitar 2)   
D|-------------|-----|-------------------------------|
A|-------------|-----|-------------------------------|
F|---10-9-x----|--12-|------------12------------12---|  
C|-------------|-----|--0---------10--0---------10---|
G|-------------|-----|--0---------10--0---------10---|
C|-------------|-----|--0---------10--0---------10---|

(Guitar 2)                   
D|------------------------------------------------------|
A|------------------------------------------------------|
F|------------------------------------------------------|  
C|-0000--000--00----------------0000--000--00-----------|
G|-0000--000--00---8--7---3--5--0000--000--00---8--7---3|
C|-0000--000--00----------------0000--000--00-----------|

(Guitar 1)                                          
D|------------------------------------------|
A|------------------------------------------|
F|---10-9-x---10-9-x---10-9-x---10-9-x---12-|  
C|------------------------------------------| (x8)
G|------------------------------------------|
C|------------------------------------------|

(Guitar 2)
D|------------------------------------------------------|
A|------------------------------------------------------|
F|------------------------------------------------------|  
C|-8888--888--88----------------8888--888--88-----------|
G|-8888--888--88---8--7---3--5--8888--888--88---8--7---3|
C|-8888--888--88----------------8888--888--88-----------|

(Guitar 1)                                               
D|------------------------------------------|
A|------------------------------------------|
F|---10-9-x---10-9-x---10-9-x---10-9-x---12-|  
C|------------------------------------------| (x8)
G|------------------------------------------|
C|------------------------------------------|

[Pre-Verse]
(Both Guitars)                                                      
D|----------------------------------------------------------|
A|----------------------------------------------------------|
F|----------------------------------------------------------|  
C|-0000-0000000--0000000--00--------------------------------| (x4)
G|-0000-0000000--0000000--00--------------------------------|
C|-0000-0000000--0000000--00-12--12--15--15--11--11--14--14-|

[Verse]
(Both Guitars)
D|------------------------------------------------------|
A|------------------------------------------------------|
F|------------------------------------------------------|  
C|-0000--000--00----------------0000--000--00-----------|
G|-0000--000--00---8--7---3--5--0000--000--00---8--7---3|
C|-0000--000--00----------------0000--000--00-----------|

D|------------------------------------------------------|
A|------------------------------------------------------|
F|------------------------------------------------------|  
C|-8888--888--88----------------8888--888--88-----------|
G|-8888--888--88---8--7---3--5--8888--888--88---8--7---3|
C|-8888--888--88----------------8888--888--88-----------|

D|------------------------------------------------------|
A|------------------------------------------------------|
F|------------------------------------------------------|  
C|-0000--000--00----------------0000--000--00-----------|
G|-0000--000--00---8--7---3--5--0000--000--00---8--7---3|
C|-0000--000--00----------------0000--000--00-----------|

D|------------------------------------------------------|
A|------------------------------------------------------|
F|------------------------------------------------------|  
C|-8888--888--88----------------8888--888--88-----------|
G|-8888--888--88---8--7---3--5--8888--888--88---8--7---3|
C|-8888--888--88----------------8888--888--88-----------|

[Pre-Chorus]
(Both Guitars)
D|----------------------------------------------------------|
A|----------------------------------------------------------|
F|----------------------------------------------------------|  
C|-0000-0000000--0000000--00--------------------------------| (x4)
G|-0000-0000000--0000000--00--------------------------------|
C|-0000-0000000--0000000--00-12--12--15--15--11--11--14--14-|

[Chorus]
(Both Guitars - down strokes varying up to 12-15 each)
D|-----------------------------------------------------|
A|-----------------------------------------------------|
F|---10---2----12----14--------------------------------|  
C|----8---0----10----12--------------------------------|
G|----8---0----10----12--------------------------------|
C|----8---0----10----12--------------------------------|

[After Chrous]
(Guitar 1)   slowly releasing palm mute      2nd time
D|-----------------------------------------|-----|
A|-----------------------------------------|-----|
F|-----------------------------------------|-----| 
C|-0000------------------------------------|-----| (x2)
G|-0000--00--77--88--77--55--77--88--77----|--*7-|
C|-0000------------------------------------|-----|

(Guitar 2)
D|------------------------------------------------------|
A|------------------------------------------------------|
F|------------------------------------------------------|  
C|-0000--000--00----------------0000--000--00-----------|
G|-0000--000--00---8--7---3--5--0000--000--00---8--7---3|
C|-0000--000--00----------------0000--000--00-----------|

(Guitar 1)    slowly releasing palm mute     2nd time
D|-----------------------------------------|-----|
A|-----------------------------------------|-----|
F|-----------------------------------------|-----| 
C|-0000------------------------------------|-----| (x2)
G|-0000--00--77--88--77--55--77--88--77----|--*5-|
C|-0000------------------------------------|-----|

(Guitar 2)
D|------------------------------------------------------|
A|------------------------------------------------------|
F|------------------------------------------------------|  
C|-8888--888--88----------------8888--888--88-----------|
G|-8888--888--88---8--7---3--5--8888--888--88---8--7---3|
C|-8888--888--88----------------8888--888--88-----------|

[Verse]
(Both Guitars)
D|------------------------------------------------------|
A|------------------------------------------------------|
F|------------------------------------------------------|  
C|-0000--000--00----------------0000--000--00-----------|
G|-0000--000--00---8--7---3--5--0000--000--00---8--7---3|
C|-0000--000--00----------------0000--000--00-----------|

D|------------------------------------------------------|
A|------------------------------------------------------|
F|------------------------------------------------------|  
C|-8888--888--88----------------8888--888--88-----------|
G|-8888--888--88---8--7---3--5--8888--888--88---8--7---3|
C|-8888--888--88----------------8888--888--88-----------|

D|------------------------------------------------------|
A|------------------------------------------------------|
F|------------------------------------------------------|  
C|-0000--000--00----------------0000--000--00-----------|
G|-0000--000--00---8--7---3--5--0000--000--00---8--7---3|
C|-0000--000--00----------------0000--000--00-----------|

D|------------------------------------------------------|
A|------------------------------------------------------|
F|------------------------------------------------------|  
C|-8888--888--88----------------8888--888--88-----------|
G|-8888--888--88---8--7---3--5--8888--888--88---8--7---3|
C|-8888--888--88----------------8888--888--88-----------|

[Pre-Chorus]
(Both Guitars)
D|----------------------------------------------------------|
A|----------------------------------------------------------|
F|----------------------------------------------------------|  
C|-0000-0000000--0000000--00--------------------------------| (x4)
G|-0000-0000000--0000000--00--------------------------------|
C|-0000-0000000--0000000--00-12--12--15--15--11--11--14--14-|

[Chorus]
(Both Guitars - down strokes varying up to 12-15 each)
D|-----------------------------------------------------|
A|-----------------------------------------------------|
F|---10---2----12----14--------------------------------|  
C|----8---0----10----12--------------------------------|
G|----8---0----10----12--------------------------------|
C|----8---0----10----12--------------------------------|

[After Chorus 2]
    Both Guitars         1st & 3r end  2nd and 4th end     
D|--------------------|-------------|---------------|
A|--------------------|-------------|---------------|
F|--------------------|-------------|---------------| 
C|-8-7--3-5--000--000-|-xx0-3--xx0-3|-xx03--xxx--xxx| (x4)
G|-8-7--3-5--000--000-|-xx0-3--xx0-3|-xx03--xxx--xxx|
C|-8-7--3-5--000--000-|-xx0-3--xx0-3|-xx03--xxx--xxx|

(Guitar 1)  Speed up tempo    1st 3rd          2nd 4th     
D|--------------------|-------------|---------------|
A|--------------------|-------------|---------------|
F|--------------------|-------------|---------------| 
C|-8-7--3-5--000--000-|-xx0-3--xx0-3|-xx03--xxx--xxx| (x4) 
G|-8-7--3-5--000--000-|-xx0-3--xx0-3|-xx03--xxx--xxx|
C|-8-7--3-5--000--000-|-xx0-3--xx0-3|-xx03--xxx--xxx|

(Guitar 2) Plays this behind the higher tempo riff
D|----------------------------------------------|
A|----------------------------------------------|
F|----77777777777------------10101010101010-----|  
C|----xxxxxxxxxxx-------------x-x-x-x-x-x-x-----| (x2)
G|----55555555555-------------8-8-8-8-8-8-8-----|
C|----------------------------------------------|

[Bridge]
(Guitar 1)
D|----------------------------------------------|
A|---11---11---11---11---11---11---11---11------|
F|-10---10---10---10---10---10---10---10--------|  
C|----------------------------------------------|
G|----------------------------------------------|
C|----------------------------------------------|

D|----------------------------------------------|
A|--10--10--10--10--10--10--10--10--------------|
F|-9---9---9---9---9---9---9---9----------------|  
C|----------------------------------------------|
G|----------------------------------------------|
C|----------------------------------------------|

D|----------------------------------------------|
A|---8---8---8---8---8---8---8---8--------------|
F|-7---7---7---7---7---7---7---7----------------|  
C|----------------------------------------------|
G|----------------------------------------------|
C|----------------------------------------------|

D|----------------------------------------------|
A|---11---11---11---11--------------------------|
F|-10---10---10---10----------------------------|
C|----------------------------------------------|
G|----------------------x/////////////////------|
C|----------------------x/////////////////------|

[Chorus]
(Both Guitars - down strokes varying up to 12-15 each)
D|-----------------------------------------------------|
A|-----------------------------------------------------|
F|---10---2----12----14--------------------------------|  
C|----8---0----10----12--------------------------------|
G|----8---0----10----12--------------------------------|
C|----8---0----10----12--------------------------------|

[Bridge]
(Guitar 1)
D|----------------------------------------------|
A|---11---11---11---11---11---11---11---11------|
F|-10---10---10---10---10---10---10---10--------|  
C|----------------------------------------------|
G|----------------------------------------------|
C|----------------------------------------------|

D|----------------------------------------------|
A|--10--10--10--10--10--10--10--10--------------|
F|-9---9---9---9---9---9---9---9----------------|  
C|----------------------------------------------|
G|----------------------------------------------|
C|----------------------------------------------|

D|----------------------------------------------|
A|---8---8---8---8---8---8---8---8--------------|
F|-7---7---7---7---7---7---7---7----------------|  
C|----------------------------------------------|
G|----------------------------------------------|
C|----------------------------------------------|

D|----------------------------------------------|
A|---11---11---11---11--------------------------|
F|-10---10---10---10----------------------------|
C|----------------------------------------------|
G|----------------------x/////////////////------|
C|----------------------x/////////////////------|

D|------------------|
A|------------------|
F|------------------|  
C|--0000--000--00---|
G|--0000--000--00---|
C|--0000--000--00---|



************************************

| x  Dead note
| *  Natural harmonic
| x///////////////// 

************************************
Suggest correction
Creating personal tab
Creating personal tab
You can edit any tab online and save it as your Personal.

You can edit, replace or remove any tab part or add personal notes – all changes will be seen only by you.

Personal tabs can be accessed anytime from any device, even offline.
Learn more »
comments
print report bad tab
4 comments total. Showing first comments.
0 reply
tommyK 31 Jan 08, 2006 08:29 PM

You Know you can play this in standard tuning, and it sounds the same.
Email me and ill give you the tab; tommytough@hotmail.com

0 reply
ibanezeric82 103 Feb 21, 2006 11:50 AM

Lead part at beginning is wrong. So is the slow heavy bridge part (chords are wrong). Verse riff is wrong too.

0 reply
BlacklightHalo 10 Jul 04, 2013 02:49 PM

There's way more to the breakdown after the first verse. Try,

After Chrous
Guitar 1 slowly releasing palm mute (1st pass)

D |-----------------------------------------||
A |-----------------------------------------||
F |-----------------------------------------||
C |---3-2----------------------2------------||
G |----0-0--5-0-3-0-2-0-3-0-5-0-0-----------||
C |-----------------------------------------||

(2nd pass)
D |-----------------------------------------||
A |-----------------------------------------||
F |-----------------------------------------||
C |---3-2------2------------(2)~~~----------||
G |----0-0--5-0--0-5-0-3-0------------------||
C |-----------------------------------------||/tab]

... where (2)~~~ is a pinch harmonic with vibrato.

That may not be perfect but it's much closer.

guest
You may want to rate the tab now too:
select rating
Wanna post a correction for this tab? Suggest correction