Oops, an error
Loading. Please wait.

The End Of Heartache bass

version 3
1,572 views 1 this week
no commentswrite comment
1 2 3 4 5
2 more votes to show rating
add to favorites
×
Save as Personal and add changes to this tab that will be seen only by you. Learn more ›
×
You can save this tab as Personal to edit and correct it or add notes. All changes will be seen only by you. Learn more »
launch autoscroll
font size
0
reset
guitar tuner
backing track
0:00
0:00
edit
Autoscroll
slow
fast
+/-
esc
set tempo
stop
Author
F||-------------------|-------------------|-------------------|
C||-------------------|-------------------|-------------------|
G||-------------------|-------------------|-------------------|
C||--0~---------------|-------------------|-------------------|


---------------------|-------------------|-------------------|
---------------------|-------------------|-------------------|
---------------------|-------------------|-------------------|
-----------10--------|--0~---------------|-------------------|


-------------------|---------------------|------------------------------|
-------------------|---------------------|------------------------------|
-------------------|---------------------|------------------------------|
-------------------|-----------10--------|--0-0-0-0---0-0-0-0-0---------|


-------------------|------------------------------|-------------------|
-------------------|------------------------------|-------------------|
-------------------|------------------------------|-------------------|
-------------------|--0-0-0-0---0-0-0-0-0---------|-------------------|


------------------------------|-------------------|
------------------------------|-------------------|
--1-1-1-1---1-1-1-1-1---------|-------------------|
------------------------------|-------------------|


------------------------------|-----------------------|
------------------------------|-----------------------|
--1-1-1-1---1-1-1-1-1---------|-----------1/3----3----|
------------------------------|-----------------------|


------------------------------|-------------------|
------------------------------|-------------------|
------------------------------|-------------------|
--0-0-0-0---0-0-0-0-0---------|-------------------|


------------------------------|-------------------|
------------------------------|-------------------|
------------------------------|-------------------|
--0-0-0-0---0-0-0-0-0---------|-------------------|


------------------------------|-------------------|
------------------------------|-------------------|
--1-1-1-1---1-1-1-1-1---------|-------------------|
------------------------------|-------------------|


------------------------------|-----------------------|
------------------------------|-----------------------|
--1-1-1-1---1-1-1-1-1---------|-----------1/3--3--3----|
------------------------------|-----------------------|


----------------------------------|----------------------------------|
----------------------------------|----------------------------------|
----------------------------------|----------------------------------|
--0-0-0-0---0-0-0-0-0-0-0---0-0-0-|--0-0-0-0---0-0-0-6-6-6-6-5-5-5-5-|


----------------------------------|----------------------------------|
----------------------------------|----------------------------------|
----------------------------------|------------------5-5-5-5-4-4-4-4-|
--0-0-0-0---0-0-0-0-0-0-0---0-0-0-|--0-0-0-0---0-0-0-----------------|


----------------------------------|----------------------------------|
----------------------------------|----------------------------------|
----------------------------------|----------------------------------|
--0-0-0-0---0-0-0-0-0-0-0---0-0-0-|--0-0-0-0---0-0-0-6-6-6-6-5-5-5-5-|


----------------------------------|-----------------------------|
----------------------------------|-----------------------------|
----------------------------------|------------------3--3--3----|
--0-0-0-0---0-0-0-0-0-0-0---0-0-0-|--0-0-0-0---0-0-0------------|


------------------------------|-------------------|
------------------------------|-------------------|
------------------------------|-------------------|
--0-0-0-0---0-0-0-0-0---------|-------------------|


------------------------------|-------------------|
------------------------------|-------------------|
------------------------------|-------------------|
--0-0-0-0---0-0-0-0-0---------|-------------------|


------------------------------|-------------------|
------------------------------|-------------------|
--1-1-1-1---1-1-1-1-1---------|-------------------|
------------------------------|-------------------|


------------------------------|-----------------------|
------------------------------|-----------------------|
--1-1-1-1---1-1-1-1-1---------|-----------1/3--3--3---|
------------------------------|-----------------------|


------------------------------|-------------------|
------------------------------|-------------------|
------------------------------|-------------------|
--0-0-0-0---0-0-0-0-0---------|-------------------|


------------------------------|-------------------|
------------------------------|-------------------|
------------------------------|-------------------|
--0-0-0-0---0-0-0-0-0---------|-------------------|


------------------------------|-------------------|
------------------------------|-------------------|
--1-1-1-1---1-1-1-1-1---------|-------------------|
------------------------------|-------------------|


------------------------------|-----------------------|
------------------------------|-----------------------|
--1-1-1-1---1-1-1-1-1---------|-----------1/3--3--3---|
------------------------------|-----------------------|


----------------------------------|----------------------------------|
----------------------------------|----------------------------------|
----------------------------------|----------------------------------|
--0-0-0-0---0-0-0-0-0-0-0---0-0-0-|--0-0-0-0---0-0-0-6-6-6-6-5-5-5-5-|


----------------------------------|----------------------------------|
----------------------------------|----------------------------------|
----------------------------------|------------------5-5-5-5-4-4-4-4-|
--0-0-0-0---0-0-0-0-0-0-0---0-0-0-|--0-0-0-0---0-0-0-----------------|


----------------------------------|----------------------------------|
----------------------------------|----------------------------------|
----------------------------------|----------------------------------|
--0-0-0-0---0-0-0-0-0-0-0---0-0-0-|--0-0-0-0---0-0-0-6-6-6-6-5-5-5-5-|


----------------------------------|-----------------------------|
----------------------------------|-----------------------------|
----------------------------------|------------------3--3--3----|
--0-0-0-0---0-0-0-0-0-0-0---0-0-0-|--0-0-0-0---0-0-0------------|


--------------------------|--------------------------|
--------------------------|--------------------------|
--------------------------|--------------------------|
--8--8--8--8--8--8--8--8--|--8--8--8--8--8--8--8--8--|


--------------------------|--------------------------|
--------------------------|--------------------------|
--------------------------|--------------------------|
--0--0--0--0--0--0--0--0--|--0--0--0--0--0--0--0--0--|


----------------------------------|---------------------------------|
----------------------------------|---------------------------------|
----------------------------------|---------------------------------|
--10--10--10--10--10--10--10--10--|--10--10--10--10--10--12--10--7--|


--------------------------|----------------------------------|
--------------------------|----------------------------------|
--------------------------|----------------------------------|
--8--8--8--8--8--8--8--8--|--10--10--10--10--10--10--10--10--|


--------------------------|--------------------------|
--------------------------|--------------------------|
--------------------------|--------------------------|
--8--8--8--8--8--8--8--8--|--8--8--8--8--8--8--8--8--|


--------------------------|--------------------------|
--------------------------|--------------------------|
--------------------------|--------------------------|
--0--0--0--0--0--0--0--0--|--0--0--0--0--0--0--0--0--|


----------------------------------|---------------------------------|
----------------------------------|---------------------------------|
----------------------------------|---------------------------------|
--10--10--10--10--10--10--10--10--|--10--10--10--10--10--12--10--7--|


--------------------------|----------------------------------|
--------------------------|----------------------------------|
--------------------------|----------------------------------|
--8--8--8--8--8--8--8--8--|--10--10--10--10--10--10--10--10--|


------------------------------|-------------------|
------------------------------|-------------------|
------------------------------|-------------------|
--0-0-0-0---0-0-0-0-0---------|-------------------|


------------------------------|-------------------|
------------------------------|-------------------|
------------------------------|-------------------|
--0-0-0-0---0-0-0-0-0---------|-------------------|


------------------------------|-------------------|
------------------------------|-------------------|
--1-1-1-1---1-1-1-1-1---------|-------------------|
------------------------------|-------------------|


------------------------------|-----------------------|
------------------------------|-----------------------|
--1-1-1-1---1-1-1-1-1---------|-----------1/3--3--3---|
------------------------------|-----------------------|


------------------------------|-------------------|
------------------------------|-------------------|
------------------------------|-------------------|
--0-0-0-0---0-0-0-0-0---------|-------------------|


------------------------------|-------------------|
------------------------------|-------------------|
------------------------------|-------------------|
--0-0-0-0---0-0-0-0-0---------|-------------------|


------------------------------|-------------------|
------------------------------|-------------------|
--1-1-1-1---1-1-1-1-1---------|-------------------|
------------------------------|-------------------|


------------------------------|-----------------------|
------------------------------|-----------------------|
--1-1-1-1---1-1-1-1-1---------|-----------1/3--3--3---|
------------------------------|-----------------------|


----------------------------------|----------------------------------|
----------------------------------|----------------------------------|
----------------------------------|----------------------------------|
--0-0-0-0---0-0-0-0-0-0-0---0-0-0-|--0-0-0-0---0-0-0-6-6-6-6-5-5-5-5-|


----------------------------------|----------------------------------|
----------------------------------|----------------------------------|
----------------------------------|------------------5-5-5-5-4-4-4-4-|
--0-0-0-0---0-0-0-0-0-0-0---0-0-0-|--0-0-0-0---0-0-0-----------------|

----------------------------------|----------------------------------|
----------------------------------|----------------------------------|
----------------------------------|----------------------------------|
--0-0-0-0---0-0-0-0-0-0-0---0-0-0-|--0-0-0-0---0-0-0-6-6-6-6-5-5-5-5-|


----------------------------------|-----------------------------|
----------------------------------|-----------------------------|
----------------------------------|------------------3--3--3----|
--0-0-0-0---0-0-0-0-0-0-0---0-0-0-|--0-0-0-0---0-0-0------------|


--------------------------|--------------------------|
--------------------------|--------------------------|
--------------------------|--------------------------|
--8--8--8--8--8--8--8--8--|--8--8--8--8--8--8--8--8--|


--------------------------|--------------------------|
--------------------------|--------------------------|
--------------------------|--------------------------|
--0--0--0--0--0--0--0--0--|--0--0--0--0--0--0--0--0--|


----------------------------------|---------------------------------|
----------------------------------|---------------------------------|
----------------------------------|---------------------------------|
--10--10--10--10--10--10--10--10--|--10--10--10--10--10--12--10--7--|


--------------------------|----------------------------------|
--------------------------|----------------------------------|
--------------------------|----------------------------------|
--8--8--8--8--8--8--8--8--|--10--10--10--10--10--10--10--10--|


--------------------------|--------------------------|
--------------------------|--------------------------|
--------------------------|--------------------------|
--8--8--8--8--8--8--8--8--|--8--8--8--8--8--8--8--8--|


--------------------------|--------------------------|
--------------------------|--------------------------|
--------------------------|--------------------------|
--0--0--0--0--0--0--0--0--|--0--0--0--0--0--0--0--0--|


----------------------------------|---------------------------------|
----------------------------------|---------------------------------|
----------------------------------|---------------------------------|
--10--10--10--10--10--10--10--10--|--10--10--10--10--10--12--10--7--|


--------------------------|----------------------------------|
--------------------------|----------------------------------|
--------------------------|----------------------------------|
--8--8--8--8--8--8--8--8--|--10--10--10--10--10--10--10--10--|


-----------------------------|-----------------------------|
-----------------------------|-----------------------------|
-----------------------------|-----------------------------|
--5-6-5-3-5-0-3----0--0--0-0-|--0--0-0-0-1---0-0-0-0-0-1---|


-----------------------------|------------------------------|
-----------------------------|------------------------------|
-----------------------------|------------------------------|
--5-6-5-3-5-0-3----0--0--0-0-|--0--0-0-0-1---0-0---0-0-0----|


-----------------------------|-----------------------------|
-----------------------------|-----------------------------|
-----------------------------|-----------------------------|
--5-6-5-3-5-0-3----0--0--0-0-|--0--0-0-0-1---0-0-0-0-0-1---|


-----------------------------|------------------------------|
-----------------------------|------------------------------|
-----------------------------|------------------------------|
--5-6-5-3-5-0-3----0--0--0-0-|--0--0-0-0-1---0-0---0-0-0----|


-----------------------------|-----------------------------|
-----------------------------|-----------------------------|
-----------------------------|-----------------------------|
--5-6-5-3-5-0-3----0--0--0-0-|--0--0-0-0-1---0-0-0-0-0-1---|


-----------------------------|------------------------------|
-----------------------------|------------------------------|
-----------------------------|------------------------------|
--5-6-5-3-5-0-3----0--0--0-0-|--0--0-0-0-1---0-0---0-0-0----|


-----------------------------|-----------------------------|
-----------------------------|-----------------------------|
-----------------------------|-----------------------------|
--5-6-5-3-5-0-3----0--0--0-0-|--0--0-0-0-1---0-0-0-0-0-1---|


-----------------------------|-------------------------------|
-----------------------------|-------------------------------|
-----------------------------|-------------------------------|
--5-6-5-3-5-0-3----0--0--0-0-|--0--0-0-0-1---0-0---0-0-0---0-|


---------------------|---------------|---------------|---------------|
---------------------|---------------|---------------|---------------|
---------------------|---------------|---------------|---------------|
--0------------------|---------------|---------------|---------------|


---------------|---------------|---------------|
---------------|---------------|---------------|
---------------|---------------|---------------|
---------------|---------------|---------------|


----------------------------------|--------------------------|
----------------------------------|--------------------------|
----------------------------------|--------------------------|
--10--10--10--10--10--10--10--10--|--8--8--8--8--8--8--8--8--|


--------------------------|--------------------------|
--------------------------|--------------------------|
--------------------------|--------------------------|
--8--8--8--8--8--8--8--8--|--0--0--0--0--0--0--0--0--|

 
--------------------------|----------------------------------|
--------------------------|----------------------------------|
--------------------------|----------------------------------|
--0--0--0--0--0--0--0--0--|--10--10--10--10--10--10--10--10--|


---------------------------------|--------------------------|
---------------------------------|--------------------------|
---------------------------------|--------------------------|
--10--10--10--10--10--12--10--7--|--8--8--8--8--8--8--8--8--|


----------------------------------|--------------------------|
----------------------------------|--------------------------|
----------------------------------|--------------------------|
--10--10--10--10--10--10--10--10--|--8--8--8--8--8--8--8--8--|


--------------------------|--------------------------|
--------------------------|--------------------------|
--------------------------|--------------------------|
--8--8--8--8--8--8--8--8--|--0--0--0--0--0--0--0--0--|

  
--------------------------|----------------------------------|
--------------------------|----------------------------------|
--------------------------|----------------------------------|
--0--0--0--0--0--0--0--0--|--10--10--10--10--10--10--10--10--|


  
---------------------------------|--------------------------|
---------------------------------|--------------------------|
---------------------------------|--------------------------|
--10--10--10--10--10--12--10--7--|--8--8--8--8--8--8--8--8--|


                
--------------------------------|-----------------------------|---------||
--------------------------------|-----------------------------|---------||
--------------------------------|-----------------------------|---------||
--10--10--10--10--10--10--10----|--0-0-0-0---0-0-0-0-0--------|---------||

            
            
Suggest correction
Creating personal tab
Creating personal tab
You can edit any tab online and save it as your Personal.

You can edit, replace or remove any tab part or add personal notes – all changes will be seen only by you.

Personal tabs can be accessed anytime from any device, even offline.
Learn more »
Give kudos to tab author, rate the tab!
1 2 3 4 5
comments
print report bad tab
guest
You may want to rate the tab now too:
select rating
Wanna post a correction for this tab? Suggest correction