Oops, an error
Loading. Please wait.

The Forgotten guitar pro

version 1
version 1

Whole song

Interactive

13,320 views 6 this week
12 commentsread comments
1 2 3 4 5
x 13
add to favorites
guitar tuner
Autoscroll
slow
fast
+/-
esc
set tempo
stop
"The Forgotten"
demo version
Play now

or get full version for Free

×
Get full version now!
Learn and play this song
in Tab Pro
Try for free

or get $10 off Welcome Bonus

Get welcome bonus
Get access to Tab Pro version of “The Forgotten”!
Tab Pro is a premium guitar tab service, available on PC, Mac, iOS and Android
TRY FOR FREE
Your download will start in 7 seconds
×
Like this song? We have more! Follow us on Facebook for daily tips, lessons and other guitar-related content.
To download “The Forgotten” Guitar Pro tab click button below
Please note that you must have Guitar Pro software installed on your
computer in order to view this file.
Suggest correction
comments
report bad tab
12 comments total. Showing first comments.
+2 reply
kse8808 79 Jul 07, 2009 11:06 AM

Its not correct. A good start I guess?

Beginning is more like this:

D|--------------------------------------------------------------|
A|--------------------------------------------------------------|
F|--------------------------------------------------------------|
C|------------------------------------------------2-2-2/4 ------|
G|-2-2-2--2-2--22--0-0-0--2-2-22--2-5-5--5-5--55--0-0-0/2-------|
C|-2-2-2--2-2--22--0-0-0--4-4-44--4-5-5--5-5--55-----------/12\-|

I'll add more corrections when I hear them. Nice job though, just a couple missed notes hear and there.

+2 reply
kse8808 79 Jul 07, 2009 11:45 AM

Also, the riff after the intro (the bridge?) Im positive its not...

D|------------------------------------|
A|------------------------------------|
F|------------------------------------|
C|------------------------------------|
G|-2------------------7-5---2---------|
C|-2-222-2-222-2-222------5-2---------|

Sounds more like (but harder to play)...
D|----------------------------------------------------------|
A|----------------------------------------------------------|
F|----------------------------------------------------------|
C|-------------------------------------------------5--------|
G|-2------------------/7------2-----2------/7------------2--|
C|-2-222-2-222-2-222-----9-5--2-222-2-222------9-5---9-5-2--|

Easier way to play it...
D|-------------------------------------------------------|
A|-------------------------------------------------------|
F|-------------------------------------------------------|
C|--------------------/2------------------/2-----5-------|
G|-2---------------------2---2-----2---------2-----2---2-|
C|-2-222-2-222-2-222-------5-2-222-2-222-------5-----5-2-|

-2 reply
Darkness Fades 269 Jul 10, 2009 09:05 AM

i don't think it matters that much Kse8808. you play it the way you think. I think he did awesome 5/5 great job man, keep it up.

guest
You may want to rate the tab now too:
select rating