Oops, an error
Loading. Please wait.

The Forgotten tab

version 1
version 1

Whole song

Interactive

4,111 views 1 this week
no commentswrite comment
1 2 3 4 5
x 4
add to favorites
×
Save as Personal and add changes to this tab that will be seen only by you. Learn more ›
×
You can save this tab as Personal to edit and correct it or add notes. All changes will be seen only by you. Learn more »
launch autoscroll
font size
0
reset
how to read this tab
guitar tuner
backing track
0:00
0:00
edit
Autoscroll
slow
fast
+/-
esc
set tempo
stop
Title: The Forgotten
Artist: Killswitch Engage
Album: Duel
Author: Cody Hockenberry
Email: magrodydog@yahoo.com

Tuning: Drop C (CGCFAD)

You guys have been requesting this tab so...here it is! Enjoy!

Track 1: Adam Dutkiewicz

   |-3-| |-3-| |3|   |-3-| |-3-| |3|   |-3-| |-3-| |3|   |--3--|
   E E Q Q Q Q E E   E E Q Q Q Q E E   E E Q Q Q Q E E   Q Q Q H.
D|-----------------|-----------------|-----------------|------------------|
A|-----------------|-----------------|-----------------|------------------|
F|-----------------|-----------------|-----------------|------------------|
C|-2-2-2---2-2-2-2-|-0-0-0---4-4-4-4-|-5-5-5---5-5-5-5-|-7-7-7-9\---------|
G|-2-2-2---2-2-2-2-|-0-0-0---2-2-2-2-|-5-5-5---5-5-5-5-|-7-7-7-9\---------|
C|-2-2-2---2-2-2-2-|-0-0-0---0-0-0-0-|-5-5-5---5-5-5-5-|-7-7-7-9\---------|
   . . .   . . . .   . . .   . . . .   . . .   . . . .
   |-3-| |-3-| |3|   |-3-| |-3-| |3|   |-3-| |-3-| |3|   |--3--|
   E E Q Q Q Q E E   E E Q Q Q Q E E   E E Q Q Q Q E E   Q Q Q H.
D|-----------------|-----------------|-----------------|------------------|
A|-----------------|-----------------|-----------------|------------------|
F|-----------------|-----------------|-----------------|------------------|
C|-2-2-2---2-2-2-2-|-0-0-0---4-4-4-4-|-5-5-5---5-5-5-5-|-7-7-7-9\---------|
G|-2-2-2---2-2-2-2-|-0-0-0---2-2-2-2-|-5-5-5---5-5-5-5-|-7-7-7-9\---------|
C|-2-2-2---2-2-2-2-|-0-0-0---0-0-0-0-|-5-5-5---5-5-5-5-|-7-7-7-9\---------|
   . . .   . . . .   . . .   . . . .   . . .   . . . .


   |-3-| |-3-| |-3-| |-3-| |-3-|   |-3-| |-3-| |-3-| |-3-| |3|
   E S S E E S S E E S S E E E E   E S S E E S S E E E E E E E
D|-------------------------------|-----------------------------|
A|-------------------------------|-----------------------------|
F|-------------------------------|-----------------------------|
C|-------------------------------|-----------------------------|
G|-2-----------------------7-5---|-2---------------7-5---------|
C|-2-2-2-2-2-2-2-2-2-2-2-2-----5-|-2-2-2-2-2-2-2-2-----5-5-8-5-|
     . . . . . . . . . . .           . . . . . . .

   |-3-| |-3-| |-3-| |-3-| |-3-|   |-3-| |-3-| |-3-||--3--| |----3-------|
   E S S E E S S E E S S E E E E   E S S E E S S E |---Q---| E |-Q-------| E
D|-------------------------------|---------------------------------------|
A|-------------------------------|-----------------10b12r10--8-----------|
F|-------------------------------|---------------------------------------|
C|-------------------------------|-----------------------------7b9r7-5---|
G|-2-----------------------7-5---|-2-------------------------------------|
C|-2-2-2-2-2-2-2-2-2-2-2-2-----5-|-2-2-2-2-2-2-2-2-----------------------|
     . . . . . . . . . . .           . . . . . . .
   |-3-| |-3-| |-3-| |-3-| |-3-|   |-3-| |-3-| |-3-| |-3-| |3|
   E S S E E S S E E S S E E E E   E S S E E S S E E E E E E E
D|-------------------------------|-----------------------------|
A|-------------------------------|-----------------------------|
F|-------------------------------|-----------------------------|
C|-------------------------------|-----------------------------|
G|-2-----------------------7-5---|-2---------------7-5---------|
C|-2-2-2-2-2-2-2-2-2-2-2-2-----5-|-2-2-2-2-2-2-2-2-----5-5-8-5-|
     . . . . . . . . . . .           . . . . . . .

   |-3-| |-3-| |-3-| |-3-| |-3-|   |-3-| |-3-| |-3-||--3--| |----3-------|
   E S S E E S S E E S S E E E E   E S S E E S S E |---Q---| E |-Q-------| E
D|-------------------------------|---------------------------------------|
A|-------------------------------|-----------------10b12r10--8-----------|
F|-------------------------------|---------------------------------------|
C|-------------------------------|-----------------------------7b9r7-5---|
G|-2-----------------------7-5---|-2-------------------------------------|
C|-2-2-2-2-2-2-2-2-2-2-2-2-----5-|-2-2-2-2-2-2-2-2-----------------------|
     . . . . . . . . . . .           . . . . . . .

  |-3-| |-3-| |-3-| |-3-| |3|   |-3-| |-3-| |-3-| |-3-| |3|
   E S S E E S S E E E E E E E   E S S E E S S E E E E E E E
D|-----------------------------|-------------------------------|
A|-----------------------------|-------------------------------|
F|-----------------------------|-------------------------------|
C|-------------------5---------|-------------------------------|
G|-5-------5-------------9---5-|-9-------7---------10---9------|
C|-5-5-5-5---5-5-5-5---5---5---|-9-9-9-9---9-9-9-9----9---9-12-|
     . . . . . . . . . . . . .     . . . . . . . .  . . . . .

   |-3-| |-3-| |-3-| |-3-| |3|   |-3-| |-3-| |-3-| |-3-| |3|
   E S S E E S S E E E E E E E   E S S E E S S E E E E E E E
D|-----------------------------|-------------------------------|
A|-----------------------------|-------------------------------|
F|-----------------------------|-------------------------------|
C|-------------------5---------|-------------------------------|
G|-5-------5-------------9---5-|-9-------7---------10---9------|
C|-5-5-5-5---5-5-5-5---5---5---|-9-9-9-9---9-9-9-9----9---9-12-|
     . . . . . . . . . . . . .     . . . . . . . .  . . . . .

   |-3-| |-3-| |-3-| |-3-| |3|   |-3-| |-3-| |-3-| |-3-| |3|
   E S S E E S S E E E E E E E   E S S E E S S E E E E E E E
D|-----------------------------|-------------------------------|
A|-----------------------------|-------------------------------|
F|-----------------------------|-------------------------------|
C|-------------------5---------|-------------------------------|
G|-5-------5-------------9---5-|-9-------7---------10---9------|
C|-5-5-5-5---5-5-5-5---5---5---|-9-9-9-9---9-9-9-9----9---9-12-|
     . . . . . . . . . . . . .     . . . . . . . .  . . . . .
   |-3-| |-3-| |-3-| |-3-| |3|   |-3-| |-3-| |3|
   E S S E E S S E E E E E E E   E E E E E E E Q Q
D|-----------------------------|------------------|
A|-----------------------------|------------------|
F|-----------------------------|------------------|
C|-------------------5---------|------------------|
G|-5-------5-------------9---5-|-9-9-9-9-9-9-9----|
C|-5-5-5-5---5-5-5-5---5---5---|-9-9-9-9-9-9-9----|
     . . . . . . . . . . . . .

   |-3-|   |--3--|   |-3-|   |--3--|   |-3-|   |--3--|   |--3--|
   E E H   Q Q E E   E E H   Q Q E E   E E H   Q Q E E   Q Q Q H.
D|-----------------|-----------------|-----------------|-----------------|
A|-----------------|-----------------|-----------------|-----------------|
F|-----------------|-----------------|-----------------|-----------------|
C|-2-2-2---2-2-2-2-|-0-0-0---4-4-4-4-|-5-5-5---5-5-5-5-|-7-7-7-9---------|
G|-2-2-2---2-2-2-2-|-0-0-0---2-2-2-2-|-5-5-5---5-5-5-5-|-7-7-7-9---------|
C|-2-2-2---2-2-2-2-|-0-0-0---0-0-0-0-|-5-5-5---5-5-5-5-|-7-7-7-9---------|


   |-3-|   |--3--|   |-3-|   |--3--|   |-3-|   |--3--|   |--3--|
   E E H   Q Q E E   E E H   Q Q E E   E E H   Q Q E E   Q Q Q H.
D|-----------------|-----------------|-----------------|-----------------|
A|-----------------|-----------------|-----------------|-----------------|
F|-----------------|-----------------|-----------------|-----------------|
C|-2-2-2---2-2-2-2-|-0-0-0---4-4-4-4-|-5-5-5---5-5-5-5-|-7-7-7-9---------|
G|-2-2-2---2-2-2-2-|-0-0-0---2-2-2-2-|-5-5-5---5-5-5-5-|-7-7-7-9---------|
C|-2-2-2---2-2-2-2-|-0-0-0---0-0-0-0-|-5-5-5---5-5-5-5-|-7-7-7-9---------|


   |-3-| |-3-| |-3-| |-3-| |-3-|   |-3-| |-3-| |-3-| |-3-| |3|
   E S S E E S S E E S S E E E E   E S S E E S S E E E E E E E
D|-------------------------------|-----------------------------|
A|-------------------------------|-----------------------------|
F|-------------------------------|-----------------------------|
C|-------------------------------|-----------------------------|
G|-2-----------------------7-5---|-2---------------7-5---------|
C|-2-2-2-2-2-2-2-2-2-2-2-2-----5-|-2-2-2-2-2-2-2-2-----5-5-8-5-|
     . . . . . . . . . . .           . . . . . . .

   |-3-| |-3-| |-3-| |-3-| |-3-|   |-3-| |-3-| |-3-||--3--| |----3-------|
   E S S E E S S E E S S E E E E   E S S E E S S E |---Q---| E |-Q-------| E
D|-------------------------------|---------------------------------------|
A|-------------------------------|-----------------10b12r10--8-----------|
F|-------------------------------|---------------------------------------|
C|-------------------------------|-----------------------------7b9r7-5---|
G|-2-----------------------7-5---|-2-------------------------------------|
C|-2-2-2-2-2-2-2-2-2-2-2-2-----5-|-2-2-2-2-2-2-2-2-----------------------|
     . . . . . . . . . . .           . . . . . . .

  |-3-| |-3-| |-3-| |-3-| |-3-|   |-3-| |-3-| |-3-| |-3-| |3|
   E S S E E S S E E S S E E E E   E S S E E S S E E E E E E E
D|-------------------------------|-----------------------------|
A|-------------------------------|-----------------------------|
F|-------------------------------|-----------------------------|
C|-------------------------------|-----------------------------|
G|-2-----------------------7-5---|-2---------------7-5---------|
C|-2-2-2-2-2-2-2-2-2-2-2-2-----5-|-2-2-2-2-2-2-2-2-----5-5-8-5-|
     . . . . . . . . . . .           . . . . . . .

   |-3-| |-3-| |-3-| |-3-| |-3-|   |-3-| |-3-| |-3-||--3--| |----3-------|
   E S S E E S S E E S S E E E E   E S S E E S S E |---Q---| E |-Q-------| E
D|-------------------------------|---------------------------------------|
A|-------------------------------|-----------------10b12r10--8-----------|
F|-------------------------------|---------------------------------------|
C|-------------------------------|-----------------------------7b9r7-5---|
G|-2-----------------------7-5---|-2-------------------------------------|
C|-2-2-2-2-2-2-2-2-2-2-2-2-----5-|-2-2-2-2-2-2-2-2-----------------------|
     . . . . . . . . . . .           . . . . . . .

   |-3-| |-3-| |-3-| |-3-| |3|   |-3-| |-3-| |-3-| |-3-| |3|
   E S S E E S S E E E E E E E   E S S E E S S E E E E E E E
D|-----------------------------|-------------------------------|
A|-----------------------------|-------------------------------|
F|-----------------------------|-------------------------------|
C|-------------------5---------|-------------------------------|
G|-5-------5-------------9---5-|-9-------7---------10---9------|
C|-5-5-5-5---5-5-5-5---5---5---|-9-9-9-9---9-9-9-9----9---9-12-|
     . . . . . . . . . . . . .     . . . . . . . .  . . . . .

   |-3-| |-3-| |-3-| |-3-| |3|   |-3-| |-3-| |-3-| |-3-| |3|
   E S S E E S S E E E E E E E   E S S E E S S E E E E E E E
D|-----------------------------|-------------------------------|
A|-----------------------------|-------------------------------|
F|-----------------------------|-------------------------------|
C|-------------------5---------|-------------------------------|
G|-5-------5-------------9---5-|-9-------7---------10---9------|
C|-5-5-5-5---5-5-5-5---5---5---|-9-9-9-9---9-9-9-9----9---9-12-|
     . . . . . . . . . . . . .     . . . . . . . .  . . . . .

   |-3-| |-3-| |-3-| |-3-| |3|   |-3-| |-3-| |-3-| |-3-| |3|
   E S S E E S S E E E E E E E   E S S E E S S E E E E E E E
D|-----------------------------|-------------------------------|
A|-----------------------------|-------------------------------|
F|-----------------------------|-------------------------------|
C|-------------------5---------|-------------------------------|
G|-5-------5-------------9---5-|-9-------7---------10---9------|
C|-5-5-5-5---5-5-5-5---5---5---|-9-9-9-9---9-9-9-9----9---9-12-|
     . . . . . . . . . . . . .     . . . . . . . .  . . . . .
   |-3-| |-3-| |-3-| |-3-| |3|   |-3-| |-3-| |3|
   E S S E E S S E E E E E E E   E E E E E E E Q Q
D|-----------------------------|------------------|
A|-----------------------------|------------------|
F|-----------------------------|------------------|
C|-------------------5---------|------------------|
G|-5-------5-------------9---5-|-9-9-9-9-9-9-9----|
C|-5-5-5-5---5-5-5-5---5---5---|-9-9-9-9-9-9-9----|
     . . . . . . . . . . . . .

  |-3-|   |--3--|   |-3-|   |--3--|   |-3-|   |--3--|   |--3--|
   E E H   Q Q E E   E E H   Q Q E E   E E H   Q Q E E   Q Q Q H.
D|-----------------|-----------------|-----------------|-----------------|
A|-----------------|-----------------|-----------------|-----------------|
F|-----------------|-----------------|-----------------|-----------------|
C|-2-2-2---2-2-2-2-|-0-0-0---4-4-4-4-|-5-5-5---5-5-5-5-|-7-7-7-9---------|
G|-2-2-2---2-2-2-2-|-0-0-0---2-2-2-2-|-5-5-5---5-5-5-5-|-7-7-7-9---------|
C|-2-2-2---2-2-2-2-|-0-0-0---0-0-0-0-|-5-5-5---5-5-5-5-|-7-7-7-9---------|


   |-3-|   |--3--|   |-3-|   |--3--|   |-3-|   |--3--|   |--3--|
   E E H   Q Q E E   E E H   Q Q E E   E E H   Q Q E E   Q Q Q H.
D|-----------------|-----------------|-----------------|-----------------|
A|-----------------|-----------------|-----------------|-----------------|
F|-----------------|-----------------|-----------------|-----------------|
C|-2-2-2---2-2-2-2-|-0-0-0---4-4-4-4-|-5-5-5---5-5-5-5-|-7-7-7-9---------|
G|-2-2-2---2-2-2-2-|-0-0-0---2-2-2-2-|-5-5-5---5-5-5-5-|-7-7-7-9---------|
C|-2-2-2---2-2-2-2-|-0-0-0---0-0-0-0-|-5-5-5---5-5-5-5-|-7-7-7-9---------|

   E S S S S S S S S S S S S S S   E E E E E E E E
D|-------------------------------|-------------------|
A|-------------------------------|-------------------|
F|-------------------------------|-------------------|
C|-------------------------------|-10-9---7---9---10-|
G|-2-----------------------------|-8--7---5---7---8--|
C|-2-2-2-2-2-2-2-2-2-2-2-2-2-2-2-|------0---0---0----|
     . . . . . . . . . . . . . .        .   .   .

   E E E E E E E E     E S S S S S S S S S S S S S S
D|-------------------|-------------------------------|
A|-------------------|-------------------------------|
F|-------------------|-------------------------------|
C|-----5-------3-----|-------------------------------|
G|---0---0---0---0---|-2-----------------------------|
C|-5-------3---------|-2-2-2-2-2-2-2-2-2-2-2-2-2-2-2-|
                         . . . . . . . . . . . . . .

   E  E E E E E E E     E S S S S S S S S S S S S S S   E E E E E Q.
D|--------------------|-------------------------------|-----------------|
A|--------------------|-------------------------------|-----------------|
F|--------------------|-------------------------------|-----------------|
C|-10-9---7---9---10--|-9-----------------------------|-----5---3-------|
G|-8--7---5---7---8---|-7-----------------------------|---0---0-3-------|
C|------0---0---0-----|---2-2-2-2-2-2-2-2-2-2-2-2-2-2-|-5-------3-------|
        .   .   .         . . . . . . . . . . . . . .

E S S S S S S S S S S S S S S   E E E E E E E E
D|-------------------------------|-------------------|
A|-------------------------------|-------------------|
F|-------------------------------|-------------------|
C|-------------------------------|-10-9---7---9---10-|
G|-2-----------------------------|-8--7---5---7---8--|
C|-2-2-2-2-2-2-2-2-2-2-2-2-2-2-2-|------0---0---0----|
     . . . . . . . . . . . . . .        .   .   .

   E E E E E E E E     E S S S S S S S S S S S S S S
D|-------------------|-------------------------------|
A|-------------------|-------------------------------|
F|-------------------|-------------------------------|
C|-----5-------3-----|-------------------------------|
G|---0---0---0---0---|-2-----------------------------|
C|-5-------3---------|-2-2-2-2-2-2-2-2-2-2-2-2-2-2-2-|
                         . . . . . . . . . . . . . .

   E  E E E E E E E     E S S S S S S S S S S S S S S   E E E E E Q.
D|--------------------|-------------------------------|-----------------|
A|--------------------|-------------------------------|-----------------|
F|--------------------|-------------------------------|-----------------|
C|-10-9---7---9---10--|-9-----------------------------|-----5---3-------|
G|-8--7---5---7---8---|-7-----------------------------|---0---0-3-------|
C|------0---0---0-----|---2-2-2-2-2-2-2-2-2-2-2-2-2-2-|-5-------3-------|
        .   .   .         . . . . . . . . . . . . . .

   E E E E E E E E   E  E  E E E E E E    E E E E E E E E   E E E E E E E E
D|-----------------|--------------------|------------------------------------|
A|-----------------|--------------------|-----------------|------------------|
F|-----------------|--------------------|-----------------|------------------|
C|-----------------|-10-9----7---9---10-|-9---------------|-----5-------3----|
G|-2---------------|-8--7----5---7---8--|-7---------------|---0---0---0---0--|
C|-2-2-2-2-2-2-2-2-|-------0---0---0----|---2-2-2-2-2-2-2-|-5-------3--------|
     . . . . . . .         .   .   .        . . . . . . .

   E E E E E E E E   E  E  E E E E E E    E E E E E E E E   E E E E E E E E
D|-----------------|--------------------|------------------------------------|
A|-----------------|--------------------|-----------------|------------------|
F|-----------------|--------------------|-----------------|------------------|
C|-----------------|-10-9----7---9---10-|-9---------------|-----5-------3----|
G|-2---------------|-8--7----5---7---8--|-7---------------|---0---0---0---0--|
C|-2-2-2-2-2-2-2-2-|-------0---0---0----|---2-2-2-2-2-2-2-|-5-------3--------|
     . . . . . . .         .   .   .        . . . . . . .

   Q. Q     Q. Q     Q. Q     Q. Q     Q. Q     Q. Q     E  E E  E  E  E   E  E  E  E  E  E
D|--------|--------|--------|--------|--------|--------|-----------------|-------------------|
A|--------|--------|--------|--------|--------|--------|-----------------|-------------------|
F|--------|--------|--------|--------|--------|--------|10-10-10-10-10-10|-14-14-14-14-14-14-|
C|--------|--------|--------|--------|--------|--------|-x-x-x-x-x-x-x-x-|-x-x-x-x-x-x-x-x-x-|
G|-2--2---|-2--2---|-5--5---|-3--3---|-2--2---|-2--2---|-8-8--8--8--8--8-|-12-12-12-12-12-12-|
C|-2--2---|-2--2---|-5--5---|-3--3---|-2--2---|-2--2---|-----------------|-------------------|
      .        .        .        .        .        .

   Q. Q     Q. Q     Q. Q     Q. Q     Q. Q     Q. Q     E  E E  E  E  E   E  E  E  E  E  E
D|--------|--------|--------|--------|--------|--------|-----------------|-------------------|
A|--------|--------|--------|--------|--------|--------|-----------------|-------------------|
F|--------|--------|--------|--------|--------|--------|10-10-10-10-10-10|-14-14-14-14-14-14-|
C|--------|--------|--------|--------|--------|--------|-x-x-x-x-x-x-x-x-|-x-x-x-x-x-x-x-x-x-|
G|-2--2---|-2--2---|-5--5---|-3--3---|-2--2---|-2--2---|-8-8--8--8--8--8-|-12-12-12-12-12-12-|
C|-2--2---|-2--2---|-5--5---|-3--3---|-2--2---|-2--2---|-----------------|-------------------|
      .        .        .        .        .        .

         W                  W                 W          Q Q Q H.
D|-----------------|-----------------|-----------------|-----------------|
A|-----------------|-----------------|-----------------|-----------------|
F|-----------------|-----------------|-----------------|-----------------|
C|-----------------|-----------------|-----------------|-7-7-7-9---------|
G|-----------------|-----------------|-----------------|-7-7-7-9---------|
C|-----------------|-----------------|-----------------|-7-7-7-9---------|

   |-3-|   |--3--|   |-3-|   |--3--|   |-3-|   |--3--|   |--3--|
   E E H   Q Q E E   E E H   Q Q E E   E E H   Q Q E E   Q Q Q H.
D|-----------------|-----------------|-----------------|-----------------|
A|-----------------|-----------------|-----------------|-----------------|
F|-----------------|-----------------|-----------------|-----------------|
C|-2-2-2---2-2-2-2-|-0-0-0---4-4-4-4-|-5-5-5---5-5-5-5-|-7-7-7-9---------|
G|-2-2-2---2-2-2-2-|-0-0-0---2-2-2-2-|-5-5-5---5-5-5-5-|-7-7-7-9---------|
C|-2-2-2---2-2-2-2-|-0-0-0---0-0-0-0-|-5-5-5---5-5-5-5-|-7-7-7-9---------|


   |-3-|   |--3--|   |-3-|   |--3--|   |-3-|   |--3--|   |--3--|
   E E H   Q Q E E   E E H   Q Q E E   E E H   Q Q E E   Q Q Q H.
D|-----------------|-----------------|-----------------|-----------------|
A|-----------------|-----------------|-----------------|-----------------|
F|-----------------|-----------------|-----------------|-----------------|
C|-2-2-2---2-2-2-2-|-0-0-0---4-4-4-4-|-5-5-5---5-5-5-5-|-7-7-7-9---------|
G|-2-2-2---2-2-2-2-|-0-0-0---2-2-2-2-|-5-5-5---5-5-5-5-|-7-7-7-9---------|
C|-2-2-2---2-2-2-2-|-0-0-0---0-0-0-0-|-5-5-5---5-5-5-5-|-7-7-7-9---------|

   |-3-|   |--3--|   |-3-|   |--3--|   |-3-|   |--3--|   |--3--|
   E E H   Q Q E E   E E H   Q Q E E   E E H   Q Q E E   Q Q Q H.
D|-----------------|-----------------|-----------------|-----------------|
A|-----------------|-----------------|-----------------|-----------------|
F|-----------------|-----------------|-----------------|-----------------|
C|-2-2-2---2-2-2-2-|-0-0-0---4-4-4-4-|-5-5-5---5-5-5-5-|-7-7-7-9---------|
G|-2-2-2---2-2-2-2-|-0-0-0---2-2-2-2-|-5-5-5---5-5-5-5-|-7-7-7-9---------|
C|-2-2-2---2-2-2-2-|-0-0-0---0-0-0-0-|-5-5-5---5-5-5-5-|-7-7-7-9---------|

   |--3--|
   E  E  H
D|-------------------|
A|-------------------|
F|-12-11-9~----------|
C|-------------------|
G|-------------------|
C|-------------------|

Track 2: Joel Stroetzel

   |-3-| |-3-| |3|   |-3-| |-3-| |3|   |-3-| |-3-| |3|   |--3--|
   E E Q Q Q Q E E   E E Q Q Q Q E E   E E Q Q Q Q E E   Q Q Q H.
D|-----------------|-----------------|-----------------|------------------|
A|-----------------|-----------------|-----------------|------------------|
F|-----------------|-----------------|-----------------|------------------|
C|-2-2-2---2-2-2-2-|-0-0-0---4-4-4-4-|-5-5-5---5-5-5-5-|-7-7-7-9\---------|
G|-2-2-2---2-2-2-2-|-0-0-0---2-2-2-2-|-5-5-5---5-5-5-5-|-7-7-7-9\---------|
C|-2-2-2---2-2-2-2-|-0-0-0---0-0-0-0-|-5-5-5---5-5-5-5-|-7-7-7-9\---------|
   . . .   . . . .   . . .   . . . .   . . .   . . . .
   |-3-| |-3-| |3|   |-3-| |-3-| |3|   |-3-| |-3-| |3|   |--3--|
   E E Q Q Q Q E E   E E Q Q Q Q E E   E E Q Q Q Q E E   Q Q Q H.
D|-----------------|-----------------|-----------------|------------------|
A|-----------------|-----------------|-----------------|------------------|
F|-----------------|-----------------|-----------------|------------------|
C|-2-2-2---2-2-2-2-|-0-0-0---4-4-4-4-|-5-5-5---5-5-5-5-|-7-7-7-9\---------|
G|-2-2-2---2-2-2-2-|-0-0-0---2-2-2-2-|-5-5-5---5-5-5-5-|-7-7-7-9\---------|
C|-2-2-2---2-2-2-2-|-0-0-0---0-0-0-0-|-5-5-5---5-5-5-5-|-7-7-7-9\---------|
   . . .   . . . .   . . .   . . . .   . . .   . . . .


   |-3-| |-3-| |-3-| |-3-| |-3-|   |-3-| |-3-| |-3-| |-3-| |3|
   E S S E E S S E E S S E E E E   E S S E E S S E E E E E E E
D|-------------------------------|-----------------------------|
A|-------------------------------|-----------------------------|
F|-------------------------------|-----------------------------|
C|-------------------------------|-----------------------------|
G|-2-----------------------7-5---|-2---------------7-5---------|
C|-2-2-2-2-2-2-2-2-2-2-2-2-----5-|-2-2-2-2-2-2-2-2-----5-5-8-5-|
     . . . . . . . . . . .           . . . . . . .

   |-3-| |-3-| |-3-| |-3-| |-3-|   |-3-| |-3-| |-3-||--3--| |--3--|
   E S S E E S S E E S S E E E E   E S S E E S S E  |-Q-| E |-Q-| E
D|-------------------------------|----------------------------------|
A|-------------------------------|----------------------------------|
F|-------------------------------|----------------------------------|
C|-------------------------------|------------------7b9r7-5---------|
G|-2-----------------------7-5---|-2--------------------------------|
C|-2-2-2-2-2-2-2-2-2-2-2-2-----5-|-2-2-2-2-2-2-2-2----------7b9r7-5-|
     . . . . . . . . . . . . . .     . . . . . . .

   |-3-| |-3-| |-3-| |-3-| |-3-|   |-3-| |-3-| |-3-| |-3-| |3|
   E S S E E S S E E S S E E E E   E S S E E S S E E E E E E E
D|-------------------------------|-----------------------------|
A|-------------------------------|-----------------------------|
F|-------------------------------|-----------------------------|
C|-------------------------------|-----------------------------|
G|-2-----------------------7-5---|-2---------------7-5---------|
C|-2-2-2-2-2-2-2-2-2-2-2-2-----5-|-2-2-2-2-2-2-2-2-----5-5-8-5-|
     . . . . . . . . . . .           . . . . . . .

   |-3-| |-3-| |-3-| |-3-| |-3-|   |-3-| |-3-| |-3-||--3--| |--3--|
   E S S E E S S E E S S E E E E   E S S E E S S E  |-Q-| E |-Q-| E
D|-------------------------------|----------------------------------|
A|-------------------------------|----------------------------------|
F|-------------------------------|----------------------------------|
C|-------------------------------|------------------7b9r7-5---------|
G|-2-----------------------7-5---|-2--------------------------------|
C|-2-2-2-2-2-2-2-2-2-2-2-2-----5-|-2-2-2-2-2-2-2-2----------7b9r7-5-|
     . . . . . . . . . . . . . .     . . . . . . .

   |-3-| |-3-| |-3-| |-3-| |3|   |-3-| |-3-| |-3-| |-3-| |3|
   E S S E E S S E E E E E E E   E S S E E S S E E E E E E E
D|-----------------------------|-------------------------------|
A|-----------------------------|-------------------------------|
F|-----------------------------|-------------------------------|
C|-------------------5---------|-------------------------------|
G|-5-------5-------------9---5-|-9-------7---------10---9------|
C|-5-5-5-5---5-5-5-5---5---5---|-9-9-9-9---9-9-9-9----9---9-12-|
     . . . . . . . . . . . . .     . . . . . . . .  . . . . .

   |-3-| |-3-| |-3-| |-3-| |3|   |-3-| |-3-| |-3-| |-3-| |3|
   E S S E E S S E E E E E E E   E S S E E S S E E E E E E E
D|-----------------------------|-------------------------------|
A|-----------------------------|-------------------------------|
F|-----------------------------|-------------------------------|
C|-------------------5---------|-------------------------------|
G|-5-------5-------------9---5-|-9-------7---------10---9------|
C|-5-5-5-5---5-5-5-5---5---5---|-9-9-9-9---9-9-9-9----9---9-12-|
     . . . . . . . . . . . . .     . . . . . . . .  . . . . .

   |-3-| |-3-| |-3-| |-3-| |3|   |-3-| |-3-| |-3-| |-3-| |3|
   E S S E E S S E E E E E E E   E S S E E S S E E E E E E E
D|-----------------------------|-------------------------------|
A|-----------------------------|-------------------------------|
F|-----------------------------|-------------------------------|
C|-------------------5---------|-------------------------------|
G|-5-------5-------------9---5-|-9-------7---------10---9------|
C|-5-5-5-5---5-5-5-5---5---5---|-9-9-9-9---9-9-9-9----9---9-12-|
     . . . . . . . . . . . . .     . . . . . . . .  . . . . .

   |-3-| |-3-| |-3-| |-3-| |3|   |-3-| |-3-| |3|
   E S S E E S S E E E E E E E   E E E E E E E Q Q
D|-----------------------------|------------------|
A|-----------------------------|------------------|
F|-----------------------------|------------------|
C|-------------------5---------|------------------|
G|-5-------5-------------9---5-|-9-9-9-9-9-9-9----|
C|-5-5-5-5---5-5-5-5---5---5---|-9-9-9-9-9-9-9----|
     . . . . . . . . . . . . .

   |-3-|   |--3--|   |-3-|   |--3--|   |-3-|   |--3--|   |--3--|
   E E H   Q Q E E   E E H   Q Q E E   E E H   Q Q E E   Q Q Q H.
D|-----------------|-----------------|-----------------|-----------------|
A|-----------------|-----------------|-----------------|-----------------|
F|-----------------|-----------------|-----------------|-----------------|
C|-2-2-2---2-2-2-2-|-0-0-0---4-4-4-4-|-5-5-5---5-5-5-5-|-7-7-7-9---------|
G|-2-2-2---2-2-2-2-|-0-0-0---2-2-2-2-|-5-5-5---5-5-5-5-|-7-7-7-9---------|
C|-2-2-2---2-2-2-2-|-0-0-0---0-0-0-0-|-5-5-5---5-5-5-5-|-7-7-7-9---------|


   |-3-|   |--3--|   |-3-|   |--3--|   |-3-|   |--3--|   |--3--|
   E E H   Q Q E E   E E H   Q Q E E   E E H   Q Q E E   Q Q Q H.
D|-----------------|-----------------|-----------------|-----------------|
A|-----------------|-----------------|-----------------|-----------------|
F|-----------------|-----------------|-----------------|-----------------|
C|-2-2-2---2-2-2-2-|-0-0-0---4-4-4-4-|-5-5-5---5-5-5-5-|-7-7-7-9---------|
G|-2-2-2---2-2-2-2-|-0-0-0---2-2-2-2-|-5-5-5---5-5-5-5-|-7-7-7-9---------|
C|-2-2-2---2-2-2-2-|-0-0-0---0-0-0-0-|-5-5-5---5-5-5-5-|-7-7-7-9---------|


   |-3-| |-3-| |-3-| |-3-| |-3-|   |-3-| |-3-| |-3-| |-3-| |3|
   E S S E E S S E E S S E E E E   E S S E E S S E E E E E E E
D|-------------------------------|-----------------------------|
A|-------------------------------|-----------------------------|
F|-------------------------------|-----------------------------|
C|-------------------------------|-----------------------------|
G|-2-----------------------7-5---|-2---------------7-5---------|
C|-2-2-2-2-2-2-2-2-2-2-2-2-----5-|-2-2-2-2-2-2-2-2-----5-5-8-5-|
     . . . . . . . . . . .           . . . . . . .

   |-3-| |-3-| |-3-| |-3-| |-3-|   |-3-| |-3-| |-3-||--3--| |--3--|
   E S S E E S S E E S S E E E E   E S S E E S S E  |-Q-| E |-Q-| E
D|-------------------------------|----------------------------------|
A|-------------------------------|----------------------------------|
F|-------------------------------|----------------------------------|
C|-------------------------------|------------------7b9r7-5---------|
G|-2-----------------------7-5---|-2--------------------------------|
C|-2-2-2-2-2-2-2-2-2-2-2-2-----5-|-2-2-2-2-2-2-2-2----------7b9r7-5-|
     . . . . . . . . . . . . . .     . . . . . . .

   |-3-| |-3-| |-3-| |-3-| |-3-|   |-3-| |-3-| |-3-| |-3-| |3|
   E S S E E S S E E S S E E E E   E S S E E S S E E E E E E E
D|-------------------------------|-----------------------------|
A|-------------------------------|-----------------------------|
F|-------------------------------|-----------------------------|
C|-------------------------------|-----------------------------|
G|-2-----------------------7-5---|-2---------------7-5---------|
C|-2-2-2-2-2-2-2-2-2-2-2-2-----5-|-2-2-2-2-2-2-2-2-----5-5-8-5-|
     . . . . . . . . . . .           . . . . . . .

   |-3-| |-3-| |-3-| |-3-| |-3-|   |-3-| |-3-| |-3-||--3--| |--3--|
   E S S E E S S E E S S E E E E   E S S E E S S E  |-Q-| E |-Q-| E
D|-------------------------------|----------------------------------|
A|-------------------------------|----------------------------------|
F|-------------------------------|----------------------------------|
C|-------------------------------|------------------7b9r7-5---------|
G|-2-----------------------7-5---|-2--------------------------------|
C|-2-2-2-2-2-2-2-2-2-2-2-2-----5-|-2-2-2-2-2-2-2-2----------7b9r7-5-|
     . . . . . . . . . . . . . .     . . . . . . .

   |-3-| |-3-| |-3-| |-3-| |3|   |-3-| |-3-| |-3-| |-3-| |3|
   E S S E E S S E E E E E E E   E S S E E S S E E E E E E E
D|-----------------------------|-------------------------------|
A|-----------------------------|-------------------------------|
F|-----------------------------|-------------------------------|
C|-------------------5---------|-------------------------------|
G|-5-------5-------------9---5-|-9-------7---------10---9------|
C|-5-5-5-5---5-5-5-5---5---5---|-9-9-9-9---9-9-9-9----9---9-12-|
     . . . . . . . . . . . . .     . . . . . . . .  . . . . .

   |-3-| |-3-| |-3-| |-3-| |3|   |-3-| |-3-| |-3-| |-3-| |3|
   E S S E E S S E E E E E E E   E S S E E S S E E E E E E E
D|-----------------------------|-------------------------------|
A|-----------------------------|-------------------------------|
F|-----------------------------|-------------------------------|
C|-------------------5---------|-------------------------------|
G|-5-------5-------------9---5-|-9-------7---------10---9------|
C|-5-5-5-5---5-5-5-5---5---5---|-9-9-9-9---9-9-9-9----9---9-12-|
     . . . . . . . . . . . . .     . . . . . . . .  . . . . .

   |-3-| |-3-| |-3-| |-3-| |3|   |-3-| |-3-| |-3-| |-3-| |3|
   E S S E E S S E E E E E E E   E S S E E S S E E E E E E E
D|-----------------------------|-------------------------------|
A|-----------------------------|-------------------------------|
F|-----------------------------|-------------------------------|
C|-------------------5---------|-------------------------------|
G|-5-------5-------------9---5-|-9-------7---------10---9------|
C|-5-5-5-5---5-5-5-5---5---5---|-9-9-9-9---9-9-9-9----9---9-12-|
     . . . . . . . . . . . . .     . . . . . . . .  . . . . .

  |-3-| |-3-| |-3-| |-3-| |3|   |-3-| |-3-| |3|
   E S S E E S S E E E E E E E   E E E E E E E Q Q
D|-----------------------------|------------------|
A|-----------------------------|------------------|
F|-----------------------------|------------------|
C|-------------------5---------|------------------|
G|-5-------5-------------9---5-|-9-9-9-9-9-9-9----|
C|-5-5-5-5---5-5-5-5---5---5---|-9-9-9-9-9-9-9----|
     . . . . . . . . . . . . .

   |-3-|   |--3--|   |-3-|   |--3--|   |-3-|   |--3--|   |--3--|
   E E H   Q Q E E   E E H   Q Q E E   E E H   Q Q E E   Q Q Q H.
D|-----------------|-----------------|-----------------|-----------------|
A|-----------------|-----------------|-----------------|-----------------|
F|-----------------|-----------------|-----------------|-----------------|
C|-2-2-2---2-2-2-2-|-0-0-0---4-4-4-4-|-5-5-5---5-5-5-5-|-7-7-7-9---------|
G|-2-2-2---2-2-2-2-|-0-0-0---2-2-2-2-|-5-5-5---5-5-5-5-|-7-7-7-9---------|
C|-2-2-2---2-2-2-2-|-0-0-0---0-0-0-0-|-5-5-5---5-5-5-5-|-7-7-7-9---------|


   |-3-|   |--3--|   |-3-|   |--3--|   |-3-|   |--3--|   |--3--|
   E E H   Q Q E E   E E H   Q Q E E   E E H   Q Q E E   Q Q Q H.
D|-----------------|-----------------|-----------------|-----------------|
A|-----------------|-----------------|-----------------|-----------------|
F|-----------------|-----------------|-----------------|-----------------|
C|-2-2-2---2-2-2-2-|-0-0-0---4-4-4-4-|-5-5-5---5-5-5-5-|-7-7-7-9---------|
G|-2-2-2---2-2-2-2-|-0-0-0---2-2-2-2-|-5-5-5---5-5-5-5-|-7-7-7-9---------|
C|-2-2-2---2-2-2-2-|-0-0-0---0-0-0-0-|-5-5-5---5-5-5-5-|-7-7-7-9---------|

   E S S S S S S S S S S S S S S   E E E E E E E E
D|-------------------------------|-------------------|
A|-------------------------------|-------------------|
F|-------------------------------|-------------------|
C|-------------------------------|-10-9---7---9---10-|
G|-2-----------------------------|-8--7---5---7---8--|
C|-2-2-2-2-2-2-2-2-2-2-2-2-2-2-2-|------0---0---0----|
     . . . . . . . . . . . . . .        .   .   .

   E E E E E E E E     E S S S S S S S S S S S S S S
D|-------------------|-------------------------------|
A|-------------------|-------------------------------|
F|-------------------|-------------------------------|
C|-----5-------3-----|-------------------------------|
G|---0---0---0---0---|-2-----------------------------|
C|-5-------3---------|-2-2-2-2-2-2-2-2-2-2-2-2-2-2-2-|
                         . . . . . . . . . . . . . .

   E  E E E E E E E     E S S S S S S S S S S S S S S   E E E E E Q.
D|--------------------|-------------------------------|-----------------|
A|--------------------|-------------------------------|-----------------|
F|--------------------|-------------------------------|-----------------|
C|-10-9---7---9---10--|-9-----------------------------|-----5---3-------|
G|-8--7---5---7---8---|-7-----------------------------|---0---0-3-------|
C|------0---0---0-----|---2-2-2-2-2-2-2-2-2-2-2-2-2-2-|-5-------3-------|
        .   .   .         . . . . . . . . . . . . . .

E S S S S S S S S S S S S S S   E E E E E E E E
D|-------------------------------|-------------------|
A|-------------------------------|-------------------|
F|-------------------------------|-------------------|
C|-------------------------------|-10-9---7---9---10-|
G|-2-----------------------------|-8--7---5---7---8--|
C|-2-2-2-2-2-2-2-2-2-2-2-2-2-2-2-|------0---0---0----|
     . . . . . . . . . . . . . .        .   .   .

   E E E E E E E E     E S S S S S S S S S S S S S S
D|-------------------|-------------------------------|
A|-------------------|-------------------------------|
F|-------------------|-------------------------------|
C|-----5-------3-----|-------------------------------|
G|---0---0---0---0---|-2-----------------------------|
C|-5-------3---------|-2-2-2-2-2-2-2-2-2-2-2-2-2-2-2-|
                         . . . . . . . . . . . . . .

   E  E E E E E E E     E S S S S S S S S S S S S S S   E E E E E Q.
D|--------------------|-------------------------------|-----------------|
A|--------------------|-------------------------------|-----------------|
F|--------------------|-------------------------------|-----------------|
C|-10-9---7---9---10--|-9-----------------------------|-----5---3-------|
G|-8--7---5---7---8---|-7-----------------------------|---0---0-3-------|
C|------0---0---0-----|---2-2-2-2-2-2-2-2-2-2-2-2-2-2-|-5-------3-------|
        .   .   .         . . . . . . . . . . . . . .

   E E E E E E E E   E  E  E E E E E E    E E E E E E E E   E E E E E E E E
D|-----------------|--------------------|------------------------------------|
A|-----------------|--------------------|-----------------|------------------|
F|-----------------|--------------------|-----------------|------------------|
C|-----------------|-10-9----7---9---10-|-9---------------|-----5-------3----|
G|-2---------------|-8--7----5---7---8--|-7---------------|---0---0---0---0--|
C|-2-2-2-2-2-2-2-2-|-------0---0---0----|---2-2-2-2-2-2-2-|-5-------3--------|
     . . . . . . .         .   .   .        . . . . . . .

   E E E E E E E E   E  E  E E E E E E    E E E E E E E E   E E E E E E E E
D|-----------------|--------------------|------------------------------------|
A|-----------------|--------------------|-----------------|------------------|
F|-----------------|--------------------|-----------------|------------------|
C|-----------------|-10-9----7---9---10-|-9---------------|-----5-------3----|
G|-2---------------|-8--7----5---7---8--|-7---------------|---0---0---0---0--|
C|-2-2-2-2-2-2-2-2-|-------0---0---0----|---2-2-2-2-2-2-2-|-5-------3--------|
     . . . . . . .         .   .   .        . . . . . . .

   Q. Q     Q. Q     Q. Q     Q. Q     Q. Q     Q. Q     E E E E E E   E E  E  E  E  E
D|--------|--------|--------|--------|--------|--------|-------------|------------------|
A|--------|--------|--------|--------|--------|--------|-------------|------------------|
F|--------|--------|--------|--------|--------|--------|-7-7-7-7-7-7-|10-10-10-10-10-10-|
C|--------|--------|--------|--------|--------|--------|-x-x-x-x-x-x-|-x-x-x-x-x-x-x-x--|
G|-2--2---|-2--2---|-5--5---|-3--3---|-2--2---|-2--2---|-5-5-5-5-5-5-|-8-8--8--8--8--8--|
C|-2--2---|-2--2---|-5--5---|-3--3---|-2--2---|-2--2---|-------------|------------------|
      .        .        .        .        .        .


   Q. Q     Q. Q     Q. Q     Q. Q     Q. Q     Q. Q     E E E E E E   E E  E  E  E  E
D|--------|--------|--------|--------|--------|--------|-------------|------------------|
A|--------|--------|--------|--------|--------|--------|-------------|------------------|
F|--------|--------|--------|--------|--------|--------|-7-7-7-7-7-7-|10-10-10-10-10-10-|
C|--------|--------|--------|--------|--------|--------|-x-x-x-x-x-x-|-x-x-x-x-x-x-x-x--|
G|-2--2---|-2--2---|-5--5---|-3--3---|-2--2---|-2--2---|-5-5-5-5-5-5-|-8-8--8--8--8--8--|
C|-2--2---|-2--2---|-5--5---|-3--3---|-2--2---|-2--2---|-------------|------------------|
      .        .        .        .        .        .

         W                  W                 W          Q Q Q H.
D|-----------------|-----------------|-----------------|-----------------|
A|-----------------|-----------------|-----------------|-----------------|
F|-----------------|-----------------|-----------------|-----------------|
C|-----------------|-----------------|-----------------|-7-7-7-9---------|
G|-----------------|-----------------|-----------------|-7-7-7-9---------|
C|-----------------|-----------------|-----------------|-7-7-7-9---------|

   |-3-|   |--3--|   |-3-|   |--3--|   |-3-|   |--3--|   |--3--|
   E E H   Q Q E E   E E H   Q Q E E   E E H   Q Q E E   Q Q Q H.
D|-----------------|-----------------|-----------------|-----------------|
A|-----------------|-----------------|-----------------|-----------------|
F|-----------------|-----------------|-----------------|-----------------|
C|-2-2-2---2-2-2-2-|-0-0-0---4-4-4-4-|-5-5-5---5-5-5-5-|-7-7-7-9---------|
G|-2-2-2---2-2-2-2-|-0-0-0---2-2-2-2-|-5-5-5---5-5-5-5-|-7-7-7-9---------|
C|-2-2-2---2-2-2-2-|-0-0-0---0-0-0-0-|-5-5-5---5-5-5-5-|-7-7-7-9---------|


   |-3-|   |--3--|   |-3-|   |--3--|   |-3-|   |--3--|   |--3--|
   E E H   Q Q E E   E E H   Q Q E E   E E H   Q Q E E   Q Q Q H.
D|-----------------|-----------------|-----------------|-----------------|
A|-----------------|-----------------|-----------------|-----------------|
F|-----------------|-----------------|-----------------|-----------------|
C|-2-2-2---2-2-2-2-|-0-0-0---4-4-4-4-|-5-5-5---5-5-5-5-|-7-7-7-9---------|
G|-2-2-2---2-2-2-2-|-0-0-0---2-2-2-2-|-5-5-5---5-5-5-5-|-7-7-7-9---------|
C|-2-2-2---2-2-2-2-|-0-0-0---0-0-0-0-|-5-5-5---5-5-5-5-|-7-7-7-9---------|

   |-3-|   |--3--|   |-3-|   |--3--|   |-3-|   |--3--|   |--3--|
   E E H   Q Q E E   E E H   Q Q E E   E E H   Q Q E E   Q Q Q H.
D|-----------------|-----------------|-----------------|-----------------|
A|-----------------|-----------------|-----------------|-----------------|
F|-----------------|-----------------|-----------------|-----------------|
C|-2-2-2---2-2-2-2-|-0-0-0---4-4-4-4-|-5-5-5---5-5-5-5-|-7-7-7-9---------|
G|-2-2-2---2-2-2-2-|-0-0-0---2-2-2-2-|-5-5-5---5-5-5-5-|-7-7-7-9---------|
C|-2-2-2---2-2-2-2-|-0-0-0---0-0-0-0-|-5-5-5---5-5-5-5-|-7-7-7-9---------|

   |--3--|
   E  E  H
D|-------------------|
A|-------------------|
F|-12-11-9~----------|
C|-------------------|
G|-------------------|
C|-------------------|


Track 3: Lead overdub


/////////////////////////////////////////////////////////
////////////////////////////////////////////////////////
/////////////////REST/4/MEASURES///////////////////////
//////////////////////////////////////////////////////
/////////////////////////////////////////////////////


   |--3--|  |--3--| |--3--|   |--3--|  |--3--| |--3--|
   E  E  H  E E  E  E  E E    E  E E   E  E E  E  E E
D|--------------------------|--------------------------|
A|--------------------------|--------------------------|
F|-12-11-9~---------9----12-|-11-9------------------11-|
C|----------9-11-12---12----|------12~----9-11-12-9----|
G|--------------------------|----------12--------------|
C|--------------------------|--------------------------|

   |--3--|  |--3--| |--3--|   |--3--|
   E  E  H  E E  E  E E  E    Q  Q Q  H
D|--------------------------|-------------------|
A|--------------------------|-------------------|
F|-12-11-9~---------9----12-|-11\9--------------|
C|----------9-11-12---12----|------12\9~--------|
G|--------------------------|-------------------|
C|--------------------------|-------------------|

/////////////////////////////////////////////////////////
////////////////////////////////////////////////////////
/////////////////REST/12/MEASURES//////////////////////
//////////////////////////////////////////////////////
/////////////////////////////////////////////////////

   W                  W                   W
D|------------------|-------------------|------------------|-----------------|
A|------------------|-------------------|------------------|-----------------|
F|------------------|-------------------|------------------|-///////////////-|
C|-5----------------|-9-----------------|-5----------------|-/////REST/////--|
G|-5----------------|-9-----------------|-5----------------|-/////////////---|
C|-5----------------|-9-----------------|-5----------------|-----------------|

   |--3--|  |--3--| |--3--|   |--3--|  |--3--| |--3--|
   E  E  H  E E  E  E  E E    E  E E   E  E E  E  E E
D|--------------------------|--------------------------|
A|--------------------------|--------------------------|
F|-12-11-9~---------9----12-|-11-9------------------11-|
C|----------9-11-12---12----|------12~----9-11-12-9----|
G|--------------------------|----------12--------------|
C|--------------------------|--------------------------|

   |--3--|  |--3--| |--3--|   |--3--|
   E  E  H  E E  E  E E  E    Q  Q Q  H
D|--------------------------|-------------------|
A|--------------------------|-------------------|
F|-12-11-9~---------9----12-|-11\9--------------|
C|----------9-11-12---12----|------12\9~--------|
G|--------------------------|-------------------|
C|--------------------------|-------------------|

/////////////////////////////////////////////////////////
////////////////////////////////////////////////////////
/////////////////REST/4/MEASURES///////////////////////
//////////////////////////////////////////////////////
/////////////////////////////////////////////////////

   W                 H        Q   Q    W                 H
D|-----------------|-----------------|-----------------|-----------------|
A|-----------------|-----------------|-----------------|-----------------|
F|-----------------|-----------------|-----------------|-----------------|
C|-2---------------|-2--------8---5--|-2---------------|-2---------------|
G|-2---------------|-2--------8---5--|-2---------------|-2---------------|
C|-2---------------|-2--------8---5--|-2---------------|-2---------------|


/////////////////////////////////////////////////////////
////////////////////////////////////////////////////////
/////////////////REST/4/MEASURES///////////////////////
//////////////////////////////////////////////////////
/////////////////////////////////////////////////////


          |--3--| |--3--|
   H      E  E  E E E  E
D|------------------------|
A|------------------------|
F|--------12-11-9---------|
C|----------------9-11-12-|
G|------------------------|
C|------------------------|

   |--3--|  |--3--| |--3--|   |--3--|  |--3--| |--3--|
   E  E  H  E E  E  E  E E    E  E E   E  E E  E  E E
D|--------------------------|--------------------------|
A|--------------------------|--------------------------|
F|-12-11-9~---------9----12-|-11-9------------------11-|
C|----------9-11-12---12----|------12~----9-11-12-9----|
G|--------------------------|----------12--------------|
C|--------------------------|--------------------------|

   |--3--|  |--3--| |--3--|   |--3--|
   E  E  H  E E  E  E E  E    Q  Q Q  H
D|--------------------------|-------------------|
A|--------------------------|-------------------|
F|-12-11-9~---------9----12-|-11\9--------------|
C|----------9-11-12---12----|------12-9~--------|
G|--------------------------|-------------------|
C|--------------------------|-------------------|

   |--3--|  |--3--| |--3--|   |--3--|  |--3--| |--3--|
   E  E  H  E E  E  E  E E    E  E E   E  E E  E  E E
D|--------------------------|--------------------------|
A|--------------------------|--------------------------|
F|-12-11-9~---------9----12-|-11-9------------------11-|
C|----------9-11-12---12----|------12~----9-11-12-9----|
G|--------------------------|----------12--------------|
C|--------------------------|--------------------------|

   |--3--|  |--3--| |--3--|   |--3--|
   E  E  H  E E  E  E E  E    Q  Q Q  H
D|--------------------------|---------------------|
A|--------------------------|---------------------|
F|-12-11-9~---------9----12-|-11\9----------------|
C|----------9-11-12---12----|------12-<9>~--------|
G|--------------------------|---------------------|
C|--------------------------|---------------------|

/////////////////////////////////////////////////////////////
////////////////////////////////////////////////////////////
/////////////////REST/40/MEASURES/^_^//////////////////////
//////////////////////////////////////////////////////////
/////////////////////////////////////////////////////////

   |--3--|  |--3--| |--3--|   |--3--|  |--3--| |--3--|
   E  E  H  E E  E  E  E E    E  E E   E  E E  E  E E
D|--------------------------|--------------------------|
A|--------------------------|--------------------------|
F|-12-11-9~---------9----12-|-11-9------------------11-|
C|----------9-11-12---12----|------12~----9-11-12-9----|
G|--------------------------|----------12--------------|
C|--------------------------|--------------------------|

   |--3--|  |--3--| |--3--|   |--3--|
   E  E  H  E E  E  E E  E    Q  Q Q  H
D|--------------------------|-------------------|
A|--------------------------|-------------------|
F|-12-11-9~---------9----12-|-11\9--------------|
C|----------9-11-12---12----|------12\9~--------|
G|--------------------------|-------------------|
C|--------------------------|-------------------|

   |--3--|  |--3--| |--3--|   |--3--|  |--3--| |--3--|
   E  E  H  E E  E  E  E E    E  E E   E  E E  E  E E
D|--------------------------|--------------------------|
A|--------------------------|--------------------------|
F|-12-11-9~---------9----12-|-11-9------------------11-|
C|----------9-11-12---12----|------12~----9-11-12-9----|
G|--------------------------|----------12--------------|
C|--------------------------|--------------------------|

   |--3--|  |--3--| |--3--|   |--3--|
   E  E  H  E E  E  E E  E    Q  Q Q  H
D|--------------------------|-------------------|
A|--------------------------|-------------------|
F|-12-11-9~---------9----12-|-11\9--------------|
C|----------9-11-12---12----|------12\9~--------|
G|--------------------------|-------------------|
C|--------------------------|-------------------|

   |--3--|  |--3--| |--3--|   |--3--|  |--3--| |--3--|
   E  E  H  E E  E  E  E E    E  E E   E  E E  E  E E
D|--------------------------|--------------------------|
A|--------------------------|--------------------------|
F|-12-11-9~---------9----12-|-11-9------------------11-|
C|----------9-11-12---12----|------12~----9-11-12-9----|
G|--------------------------|----------12--------------|
C|--------------------------|--------------------------|

   |--3--|  |--3--| |--3--|   |--3--|
   E  E  H  E E  E  E E  E    Q  Q Q  H
D|--------------------------|-------------------|
A|--------------------------|-------------------|
F|-12-11-9~---------9----12-|-11\9--------------|
C|----------9-11-12---12----|------12\9~--------|
G|--------------------------|-------------------|
C|--------------------------|-------------------|

   |--3--|  |--3--| |--3--|   |--3--|  |--3--| |--3--|
   E  E  H  E E  E  E  E E    E  E E   E  E E  E  E E
D|--------------------------|--------------------------|
A|--------------------------|--------------------------|
F|-12-11-9~---------9----12-|-11-9------------------11-|
C|----------9-11-12---12----|------12~----9-11-12-9----|
G|--------------------------|----------12--------------|
C|--------------------------|--------------------------|

   |--3--|  |--3--| |--3--|   |--3--|
   E  E  H  E E  E  E E  E    Q  Q Q  H
D|--------------------------|-------------------|
A|--------------------------|-------------------|
F|-12-11-9~---------9----12-|-11\9--------------|
C|----------9-11-12---12----|------12\9~--------|
G|--------------------------|-------------------|
C|--------------------------|-------------------|


************************************

| /   slide up
| \   slide down
| h   hammer-on
| p   pull-off
| ~   vibrato
| <>  harmonic
| x   Mute note
| b   Bend
| pb  Pre-bend
| br  Bend release
| pbr Pre-bend release
| brb Bend release bend

************************************

Tempo markers -  = BPM(8/16=s8/s16), where s8 = swing 8ths, s16 = swing 16ths
Suggest correction
Creating personal tab
Creating personal tab
You can edit any tab online and save it as your Personal.

You can edit, replace or remove any tab part or add personal notes – all changes will be seen only by you.

Personal tabs can be accessed anytime from any device, even offline.
Learn more »
comments
print report bad tab
guest
You may want to rate the tab now too:
select rating
Wanna post a correction for this tab? Suggest correction