Oops, an error
Loading. Please wait.

This Is Absolution bass

version 1
version 1

Whole song

6,163 views 1 this week
1 commentread comment
1 2 3 4 5
x 4
add to favorites
×
Save as Personal and add changes to this tab that will be seen only by you. Learn more ›
×
You can save this tab as Personal to edit and correct it or add notes. All changes will be seen only by you. Learn more »
launch autoscroll
font size
0
reset
guitar tuner
backing track
0:00
0:00
edit
Autoscroll
slow
fast
+/-
esc
set tempo
stop
----------------------------------------------
    This is Absolution - Killswitch Engage
----------------------------------------------

Drop C tuning


INTRO

  Q    Q    Q    Q
F|--------------------|
C|--------------------|
G|3---------5---------|
C|-----5---------7----|

    S S S S  S S S S  S S S S  S S S S   S S S S  S S S S  S S S S  S S S S 
||o-------------------------------------|----------------------------------|
||--------------------------------------|----------------------------------|
||--------------------------------------|--------------------------5p3-----|
||o-0h2-2-2--2-2-5p2--2-2-2-2--2-2-2-2--|2-2-2-2--2-2-2-2--5h7-0-0-----0-0-|

    S S S S  S S S S  S S S S  S S S S  S S S S S S S S S S S S S S S S 
 |-------------------------------------|-------------------------------o||
 |-------------------------------------|--------------------------------||
 |-------------------------------------|3-3-3-3-3-3-3-3-5-5-5-5-5-5-5-5-||
 |-0h2-2-2--2-2-5p2--2-2-2-2--2-2-2-2--|-------------------------------o||


1ST and 3RD VERSES

         E SS E E  E E E E  E E E E   E E E E
     ||o-------------------|------------------|
     ||--------------------|------------------|
     ||--5------7----------|------------------|
     ||o---00-0----0-2-2-2-|2-2-2-2-/-5-0-4-5-|

       E SS E E E E E E  E E E E   E E Q 
      |-----------------|------------------o||
      |-----------------|-------------------||
      |5------7---------|-------------------||
      |--00-0---0-2-2-2-|2-2-2-2-/-5-4-0---o||

       Q    Q    Q    Q
      |----------------------|
      |----------------------|
      |3---------5----12--\--|
      |-----5-------------\--|


2ND VERSE

half-time feel

     E  E  E  Q    E  Q     E  Q    E  E  E  E  E   E  E  E  Q    E  Q 
||o------------------------|-----------------------|----------------------|
||-------------------------|-----------------------|----------------------|
||---5--------7------------|-----------------------|5--------7------------|
||o-----0--0-------2--2----|2--2----2--5--0--4--5--|---0--0-------2--2----|

  1.

 E  Q    E  E  E  Q
|-----------------------o||
|------------------------||
|------------------------||
|2--2----2--5--4--0-----o||

  2.

 Q    Q    Q    E  S S
|-----------------------||
|-----%----%------------||
|-----%----%----%--2s3--||
|2----------------------||


PRE-CHORUS

end Half-time feel

  E E E E E E E E  E E E E E E E E  E E E E E Q  E   E E E E E E  E  E
 |----------------|----------------|---------------|--------------------|
 |----------------|----------------|---------------|--------------------|
 |3-3-3-3-3-3-3-3-|--------2-2-2-2-|-------------2-|h3-3-3-3-3-3--%--2h-|
 |----------------|0-0-0-0---------|2-2-2-2-2-0----|--------------------|

  E E E E E E E E  E E E E E E E E  E E E E E Q  E   W
|-----------------|----------------|---------------|--------------------|
|-----------------|----------------|---------------|--------------------|
|h3-3-3-3-3-3-3-3-|--------2-2-2-2-|-------------2-|h3------------------|
|-----------------|0-0-0-0---------|2-2-2-2-2-0----|--------------------|


CHORUS

3/4

 H.        H.        H.        H.        H.        H.
|---------|---------|---------|---------|---------|----------|
|---------|---------|---------|---------|---------|----------|
|3--------|---------|---------|3--------|---------|----------|
|---------|0--------|2--------|---------|0--------|2---------|

 Q.   Q.     Q.   Q.     H.         H. 
|-----------|5----------|----------|-----------|
|-----5-----|-----------|----------|-----------|
|3----------|-----------|----------|3----------|
|-----------|-----0-----|2---------|-----------|


4/4

 W                 +H.          Q
|-----------------|---------------------|
|-----------------|---------------------|
|-----------------|---------------------|
|0----------------|(0)----------14--\---|


BRIDGE

1st half


quarter-time

                                                       1.

    W               +W              W                +W
||o----------------|---------------|----------------|--------------o||
||-----------------|---------------|----------------|---------------||
||--3--------------|(3)------------|----------------|---------------||
||o----------------|---------------|0---------------|(0)-----------o||

   2.

  E  E  E  E  E  E  Q
 |-------------------------||
 |-------------------------||
 |12-12-12-12-12-12-12--\--||
 |-------------------------||

  2nd half

  half-time

    E E E E E E E E  E E E E E E E E  E E E E E E E E  E E E E E E E E 
||o-----------------|----------------|----------------|----------------|
||------------------|----------------|----------------|----------------|
||------------------|----------------|----------------|----------------|
||o-2-2-2-2-2-2-2-2-|2-2-2-2-2-2-2-2-|0-0-0-0-0-0-0-0-|0-0-0-0-0-0-0-0-|

                                       1.                               

   E E E E E E E E   E E E E E E E E  E E E E E E E E  E E E E E E E E 
 |------------------|----------------|----------------|-----------------o||
 |------------------|----------------|----------------|------------------||
 |-3-3-3-3-3-3-3-3--|3-3-3-3-3-3-3-3-|----------------|------------------||
 |------------------|----------------|0-0-0-0-0-0-0-0-|0-0-0-0-0-0-0-0--o||

   2.

  E E E E E E E E  E E E E E E E E
 |----------------|----------------||
 |----------------|7-7-7-7-7-7-7---||
 |----------------|--------------5-||
 |0-0-0-0-0-0-0-0-|----------------||


OUTRO

3/4

     H.               +H.             H.
 ||o-----------------|---------------|------------o||
 ||------------------|---------------|-------------||
 ||------------------|---------------|3------------||
 ||o-0---------------|(0)------------|------------o||

   H.
  |------------------||
  |------------------||
  |------------------||
  |0-----------------||

            
            
Suggest correction
Creating personal tab
Creating personal tab
You can edit any tab online and save it as your Personal.

You can edit, replace or remove any tab part or add personal notes – all changes will be seen only by you.

Personal tabs can be accessed anytime from any device, even offline.
Learn more »
comments
print report bad tab
1 comment total.
0 reply
12212012 10 Aug 22, 2009 09:21 AM

nice one 5/5

guest
You may want to rate the tab now too:
select rating
Wanna post a correction for this tab? Suggest correction