Oops, an error
Loading. Please wait.

This Is Absolution tab

version 2
version 2

Whole song

37,341 views 6 this week
12 commentsread comments
1 2 3 4 5
x 20
add to favorites
×
Save as Personal and add changes to this tab that will be seen only by you. Learn more ›
×
You can save this tab as Personal to edit and correct it or add notes. All changes will be seen only by you. Learn more »
launch autoscroll
font size
0
reset
how to read this tab
guitar tuner
backing track
0:00
0:00
edit
Autoscroll
slow
fast
+/-
esc
set tempo
stop
Author
Difficulty
Killswitch Engage
This is Absolution
As Daylight Dies


Tuning: Drop C (CGCFAD)

Intro/Verse part one:
Guitar 1
D|--------|---------------------------------------------------------------|
A|--------|---------------------------------------------------------------|
F|-5---7--|---------------------------------------------------------------|
C|-5-5-7-0|----------------------------------------7777557755445544-------|
G|-3-5-5-0|--------------------5p2p0--------------------------------------|
C|---5---0|0h22222h5p222222h4h5-----0h22222h5p2222------------------------|
     x1                            x2
Guitar 2
D|--------|---------------------------------------------------------------|
A|--------|---------------------------------------------------------------|
F|-5---7--|---------------------------------------7777557755445544--------|
C|-5-5-7-0|---------------------------------------------------------------|
G|-3-5-5-0|--------------------5p2p0--------------------------------------|
C|---5---0|0h22222h5p222222h4h5-----0h22222h5p2222------------------------|
     x1                                x2
Verse part 2:
Both Guitars
D|----------------------------------------|-------------------------------|
A|----------------------------------------|-------------------------------|
F|----------------------------------------|5---7--------------------------|
C|-0002222-22-2-5-4h5---0002222-22-2-5h4p0|5-5-7-0------------------------|
G|-0002222-22-2-5-4h5---0002222-22-2-5h4p0|3-5-5-0------------------------|
C|-0002222-22-2-5-4h5---0002222-22-2-5p4p0|--5---0------------------------|
    .. ... .. .          .. ... .. .
                     x4                          After the 2nd Time
Pre-Chorus Riff:
Guitar 1
D|------------------------------------------------------------------------|
A|------------------------------------------------------------------------|
F|--7-45420---------------------------------------------------------------|
C|------------------------------------------------------------------------|
G|------------------------------------------------------------------------|
C|------------------------------------------------------------------------|

Guitar 2 (Does this only before the 2nd Chorus)
D|------------------------------------------------------------------------|
A|------------------------------------------------------------------------|
F|------------------------------------------------------------------------|
C|--7-45420---------------------------------------------------------------|
G|------------------------------------------------------------------------|
C|------------------------------------------------------------------------|

Chorus:
Guitar 1
D|------------------------------------------------------------------------|
A|------------------------------------------------------------------------|
F|-4/55555555/777777---------------4-4/55555------------------------------|
C|-4/55555555/777777-0h2222222222--4-4/55555------------------------------|
G|-2/33333333/555555-0h2222222222--2-2/33333------------------------------|
C|-------------------0h2222222222-----------------------------------------|
          x2
Guitar 2
D|----------------------------------|------------------------------------|
A|-888888\7777/88888---7-7/88888----|-5~---------------------------------|
F|-xxxxxx\xxxx/xxxxx---x-x/xxxxx----|-x~---------------------------------|
C|-555555\4444/55555---4-4/55555----|-2~---------------------------------|
G|----------------------------------|------------------------------------|
C|----------------------------------|------------------------------------|
            x2                         2nd time end on This
After Chorus:
Guitar 1
D|------------------------------------|
A|------------------------------------|
F|-5--------5--------55-5--------5----|
C|-5--0--2--5--0--2--55-5--0--2--5--0-|
G|-3--0--2--3--0--2--33-3--0--2--3--0-|
C|----0--2-----0--2--------0--2-----0-|
   .  .  .  .  .  .   . .  .  .  .  .
Guitar 2 (Clean)
D|----0-----0-----0-----0-----0-----0---2--0--2-----0-----0---------------|
A|---0-0---0-0---0-0---0-0---0-0---0-0---3--0--3---0-0---0-0--------------|
F|--0---0-0---0-0---0-0---0-0---0-0---0---2--0--2-0---0-0---0-------------|
C|------------------------------------------------------------------------|
G|-3-----------------3-----------------3---------------3------------------|
C|-------0-----2-----------0-----2---------------2-----------0~~----------|

Repeat Verse Parts 1 and 2
Repeat Chorus and After Chorus

Bridge
Guitar 1
D|------------------------------------------------------------------------|
A|------------------------------------------------------------------------|
F|------------------------------------55555--5--5--5----------------------|
C|-22222------------00000-------------55555--5--5--5---000000000000-------|
G|-22222------------00000-------------33333--3--3--3---000000000000-------|
C|-22222h52h42h52h4-00000h50h40h50h40------h5-h4-h5-h4-000000000000-------|
    ....             ....              ....  .  .  .    ...........
                                 x4
Guitar 2 (part 1)
D|------------------------------------------------------------------------|
A|------------------------------------------------------------------------|
F|------------5~----------------------------------------------------------|
C|--2~---0~---5~---0~-----------------------------------------------------|
G|--2~---0~---3~---0~-----------------------------------------------------|
C|--2~---0~--------0~-----------------------------------------------------|
          x2
Guitar 2 (Part 2) Do this Twice
D|---------------------------|--------------------------------------------|
A|---------------------------|--------------------------------------------|
F|---7-7-7-7-2-2-4-4---------|--------------------------------------------|
C|----5-5-5-5-4-4-5-5--------|-4-4-4-4-5-5-7-7----------------------------|
G|---------------------------|--5-5-5-5-7-7-9-9---------------------------|
C|---------------------------|--------------------------------------------|
      . . . . . . . .           . . . . . . . .
              x3

Then repeat the Chorus and the After Chorus

 /  slide up
 \  slide down
 h  hammer-on
 p  pull-off
 ~  vibrato
 +  harmonic
 . or x  Mute note
Suggest correction
Creating personal tab
Creating personal tab
You can edit any tab online and save it as your Personal.

You can edit, replace or remove any tab part or add personal notes – all changes will be seen only by you.

Personal tabs can be accessed anytime from any device, even offline.
Learn more »
comments
print report bad tab
12 comments total. Showing first comments.
0 reply
Stinkbox 80 Dec 15, 2006 04:36 AM

its not all power cords on the verse part 2. everything else is cool.

0 reply
-=JB=- 20 Jan 30, 2007 01:46 AM

Can someone do this in guitar pro?

0 reply
terryn0 227 Mar 14, 2007 08:18 PM

on the intro measure its not 000 on the fourth beat, its (Starting on the 4th string and going down) 220

guest
You may want to rate the tab now too:
select rating
Wanna post a correction for this tab? Suggest correction