Oops, an error
Loading. Please wait.

Vide Infra tab

version 5
version 5

Whole song

Interactive

5,301 views 9 this week
1 commentread comment
1 2 3 4 5
x 5
add to favorites
×
Save as Personal and add changes to this tab that will be seen only by you. Learn more ›
×
You can save this tab as Personal to edit and correct it or add notes. All changes will be seen only by you. Learn more »
launch autoscroll
font size
0
reset
how to read this tab
guitar tuner
edit
Autoscroll
slow
fast
+/-
esc
set tempo
stop
Vide Infra
Killswitch Engage

Tabbed by: Steve "the man"

p - Pull off
pm- Palm mute
\ - Slide down
/ - Slide up
()- Pinch harmonic and vibrato
h - Hammer on
s - stocatto
T - tap
* - artificial (pinch) harmonic


Tuning: Drop D (top to bottom - E B G D A D)
"Yes, this is the correct tuning douchebags!!!"
maybe they use D standard, but D is still the bottom note and that is what this is 
for!


Guitar 1
|------------------------------------|------------------|
|------------------------------------|------------------|
|------------------------------------|------------------|
|------------------------------------|-33-333-311-188-8-|
|-5------------------5-------6-------|-33-333-311-188-8-|
|---0-00000-0-0-000----000-0---000-0-|-33-333-311-188-8-|
PM  . ..... . . ...    ... .   ... .

|------------------------------------|---------------------|
|------------------------------------|---------------------|
|------------------------------------|---------------------|
|------------------------------------|-55-555-51-0-1-3-1-0-|
|-5------------------5-------6-------|-55-555-51-0-1-3-1-0-|
|---0-00000-0-0-000----000-0---000-0-|-55-555-51-0-1-3-1-0-|
PM  . ..... . . ...    ... .   ... .             . . . . .

Guitar 2
|------------------------------------|------------------|
|------------------------------------|------------------|
|------------------------------------|------------------|
|------------------------------------|-33-333-311-188-8-|
|-5------------------5-------6-------|-33-333-311-188-8-|
|---0-00000-0-0-000----000-0---000-0-|-33-333-311-188-8-|
PM  . ..... . . ...    ... .   ... .

|------------------------------------|---------------------|
|------------------------------------|---------------------|
|------------------------------------|---------------------|
|------------------------------------|-55-555-51-0-1-3-1-0-|
|-5------------------5-------6-------|-55-555-51-0-1-3-1-0-|
|---0-00000-0-0-000----000-0---000-0-|-55-555-51-0-1-3-1-0-|
PM  . ..... . . ...    ... .   ... .             . . . . .


REPEAT x2

----------------------------------------------------------------------------

Guitar 1
|--------------------------------------------------------------------|
|--------------------------------------------------------------------|
|--------------------------------------------------------------------|
|--------------------------------------------------------------------|
|----------------------------------------------------8p5-8p5-8p5-8p5-|
|-4p1-4p1-4p1-4p1-7p4-7p4-7p4-7p4-11p8-11p8-11p8-11p8----------------|
  T   T   T   T   T   T   T   T   T    T    T    T   T   T   T   T


Guitar 2
|--------------------------------------------------------------------|
|--------------------------------------------------------------------|
|--------------------------------------------------------------------|
|--------------------------------------------------------------------|
|----------------------------------------------------8p5-8p5-8p5-8p5-|
|-4p1-4p1-4p1-4p1-7p4-7p4-7p4-7p4-11p8-11p8-11p8-11p8----------------|
  T   T   T   T   T   T   T   T   T    T    T    T   T   T   T   T


REPEAT x4

- this riff can also be trilled

----------------------------------------------------------------------------

Guitar 1
|----------------|
|----------------|
|----------------|
|----------------|
|-5-----4-----1~-|
|---000---000----|
PM  ...   ...


Guitar 2
|---------------|
|---------------|
|---------------|
|---------------|
|---------------|
|---------------|


----------------------------------------------------------------------------

Guitar 1
|------------------------------------|------------------|
|------------------------------------|------------------|
|------------------------------------|------------------|
|------------------------------------|-33-333-311-188-8-|
|-5------------------5-------6-------|-33-333-311-188-8-|
|---0-00000-0-0-000----000-0---000-0-|-33-333-311-188-8-|
PM  . ..... . . ...    ... .   ... .

|------------------------------------|---------------------|
|------------------------------------|---------------------|
|------------------------------------|---------------------|
|------------------------------------|-55-555-51-0-1-3-1-0-|
|-5------------------5-------6-------|-55-555-51-0-1-3-1-0-|
|---0-00000-0-0-000----000-0---000-0-|-55-555-51-0-1-3-1-0-|
PM  . ..... . . ...    ... .   ... .             . . . . .

Guitar 2
|------------------------------------|------------------|
|------------------------------------|------------------|
|------------------------------------|------------------|
|------------------------------------|-33-333-311-188-8-|
|-5------------------5-------6-------|-33-333-311-188-8-|
|---0-00000-0-0-000----000-0---000-0-|-33-333-311-188-8-|
PM  . ..... . . ...    ... .   ... .

|------------------------------------|---------------------|
|------------------------------------|---------------------|
|------------------------------------|---------------------|
|------------------------------------|-55-555-51-0-1-3-1-0-|
|-5------------------5-------6-------|-55-555-51-0-1-3-1-0-|
|---0-00000-0-0-000----000-0---000-0-|-55-555-51-0-1-3-1-0-|
PM  . ..... . . ...    ... .   ... .             . . . . .

REPEAT x2


---------------------------------------------------------------------------

Guitar 1
|--------------------------------------------------------------------|
|--------------------------------------------------------------------|
|--------------------------------------------------------------------|
|--------------------------------------------------------------------|
|----------------------------------------------------8p5-8p5-8p5-8p5-|
|-4p1-4p1-4p1-4p1-7p4-7p4-7p4-7p4-11p8-11p8-11p8-11p8----------------|
  T   T   T   T   T   T   T   T   T    T    T    T   T   T   T   T

Guitar 2
|--------------------------------------------------------------------|
|--------------------------------------------------------------------|
|--------------------------------------------------------------------|
|--------------------------------------------------------------------|
|----------------------------------------------------8p5-8p5-8p5-8p5-|
|-4p1-4p1-4p1-4p1-7p4-7p4-7p4-7p4-11p8-11p8-11p8-11p8----------------|
  T   T   T   T   T   T   T   T   T    T    T    T   T   T   T   T

REPEAT x3

Guitar 1
|--------------------------------------------------------------------|
|--------------------------------------------------------------------|
|--------------------------------------------------------------------|
|--------------------------------------------------------------------|
|----------------------------------------------------\\\\pick scrape-|
|-4p1-4p1-4p1-4p1-7p4-7p4-7p4-7p4-11p8-11p8-11p8-11p8\\\\pick scrape-|
  T   T   T   T   T   T   T   T   T    T    T    T

Guitar 2
|--------------------------------------------------------------------|
|--------------------------------------------------------------------|
|--------------------------------------------------------------------|
|--------------------------------------------------------------------|
|----------------------------------------------------\\\\pick scrape-|
|-4p1-4p1-4p1-4p1-7p4-7p4-7p4-7p4-11p8-11p8-11p8-11p8\\\\pick scrape-|
  T   T   T   T   T   T   T   T   T    T    T    T

- again, this riff can also be trilled

----------------------------------------------------------------------------

Guitar 1
|-----------------------------------------------------------------|
|-----------------------------------------------------------------|
|-----------------------------------------------------------------|
|-----------------------------------------------------------------|
|-5---5p0-0-0-0-0-5---5-----------5-6-5p0-0-0-0-0-5h6p5---5-------|
|-7h8-7p0-0-0-0-0-7h8-7-0-7-3-2-0-7-8-7p0-0-0-0-0-------0---8-7-0-|repeat x6
PM        . . . .       .   . . .         . . . .       .   . . .


Guitar 2
|-----------------------------------------------------------------|
|-----------------------------------------------------------------|
|-----------------------------------------------------------------|
|-0---------------------------------------------------------------|
|-0---------------------------------------------------------------|
|-0---------------------------------------------------------------|
  s

|---------------------------------0-------------------------------|
|---------------------------------3-------------------------------|
|---------------------------------2-------------------------------|
|-0-------------------------------0-------------------------------|
|-0---------------------------------------------------------------|
|-0-----------------------------------------------0-0-0-0-0-0-0-0-|
                                  *slight harmonic. . . . . . . .

|-----------------------------------------------------------------|
|-----------------------------------------------------------------|
|-----------------------------------------------------------------|
|-----------------------------------------------------------------|
|-5---5p0-0-0-0-0-5---5-----------5-6-5p0-0-0-0-0-5h6p5---5-------|
|-7h8-7p0-0-0-0-0-7h8-7-0-7-3-2-0-7-8-7p0-0-0-0-0-------0---8-7-0-| repeatx4
PM        . . . .       .   . . .         . . . .       .   . . .

----------------------------------------------------------------------------

Guitar 1
|--------------------------------------------------------------------------|
|-------------------------------------------------------------3------------|
|-------------------------------------------------------------3------------|
|-0-------------------1---------------3---0-------------------1------------|
|-0-------------------1---------------3---0-------------------1------------|
|--------------------------------------------------------------------------|

-------------------|
-------------------|
-------------------|
-------------------|
---5h6p5---5-------| repeat x2
---------0---8-7-0-|
PM                                                                                  .   .. .

Guitar 2
|-------------------------------------------------------------------------|
|-------------------------------------------------------------------------|
|-------------------------------------------------------------------------|
|-------------------------------------------------------------------------|
|-000-000-000-000-000-000-000-000-000-000-000-000-000-000-000-000-000-000-|
|-000-000-000-000-000-000-000-000-000-000-000-000-000-000-000-000-000-000-|
PM... ... ... ... ... ... ... ... ... ... ... ... ... ... ... ... ... ...

---------------------|
---------------------|
---------------------|
---------------------|
-000-5h6p5---5-------|
-000-------0---8-7-0-|
 ...       .   . . .


|-------------------------------------------------------------------------|
|-------------------------------------------------------------------------|
|-------------------------------------------------------------------------|
|-------------------------------------------------------------------------|
|-000-000-000-000-000-000-000-000-000-000-000-000-000-000-000-000-000-000-|
|-000-000-000-000-000-000-000-000-000-000-000-000-000-000-000-000-000-000-|
PM... ... ... ... ... ... ... ... ... ... ... ... ... ... ... ... ... ...

---------------------|
---------------------|
---------------------|
---------------------|
-0-0-0---------------|
-0-0-0---------------|
 . . S

----------------------------------------------------------------------------

Guitar 1
|-----------------------------------------------------------------|
|-----------------------------------------------------------------|
|-----------------------------------------------------------------|
|-----------------------------------------------------------------|
|-5---5p0-0-0-0-0-5---5-----------5-6-5p0-0-0-0-0-5h6p5---5-------|
|-7h8-7p0-0-0-0-0-7h8-7-0-7-3-2-0-7-8-7p0-0-0-0-0-------0---8-7-0-|
PM        . . . .       .   . . .         . . . .       .   . . .

Guitar 2
|-----------------------------------------------------------------|
|-----------------------------------------------------------------|
|-----------------------------------------------------------------|
|-----------------------------------------------------------------|
|-5---5p0-0-0-0-0-5---5-----------5-6-5p0-0-0-0-0-5h6p5---5-------|
|-7h8-7p0-0-0-0-0-7h8-7-0-7-3-2-0-7-8-7p0-0-0-0-0-------0---8-7-0-|
PM        . . . .       .   . . .         . . . .       .   . . .


REPEAT x4


----------------------------------------------------------------------------

Guitar 1
|-----------------------------------------------------------------|
|-----------------------------------------------------------------|
|-----------------------------------------------------------------|
|-----------------------------------------------------------------|
|---7-8---7-8---7-8---7-8---7-8~~-0-7-8-0-7-8-0-8-7-8-7-5-7-------|
|-8-----8-----8-----8-----8---------------------------------8-5~~-|
PM. .   . .   . .   . .   . .     . .   . .   . .

repeatx4


Guitar 2
|-----------------------------------------------------------------|
|-----------------------------------------------------------------|
|-----------------------------------------------------------------|
|-8-------------------------------10--------------0---------------|
|-8-------------------------------10--------------0---------------|
|-8-------------------------------10--------------0---------------|

repeat x2


|-------------------------------------------------------------------------|
|-------------------------------------------------------------------------|
|-7-7-7-7-7-7-7-7-7-7-7-7-9-9-9-9-10-10-10-10-10-10-10-10-----------------|
|-------------------------------------------------------------------------|
|-5-5-5-5-5-5-5-5-5-5-5-5-7-7-7-7-8--8--8--8--8--8--8--8--10h12-10-8-10-8-|
|-------------------------------------------------------------------------|


-----|
-----|
-----|
-----|
12\\-| repeat x2
-----|

----------------------------------------------------------------------------

Guitar 1
|-------------------------------------|
|-------------------------------------|
|-------------------------------------|
|-------------------------------------|
|-11111111-11111111-00000000----------| repeat x4
|----------------------------00000000-|


Guitar 2
|---------------------------------------------|
|---------------------------------------------|
|---------------------------------------------|
|------------------------------------77777777-|
|-77777777-88888888-1010101010101010----------| repeatx2
|---------------------------------------------|


|-----------------------------------------------|
|-----------------------------------------------|
|-----------------------------------------------|
|------7777-5555-7777-1010101010101010----------|
|-5555---------------------------------88888888-| repeat x2
|-----------------------------------------------|

--------------------------------------------------------------------------

Guitar 1
|-0-----|
|-3-----|
|-2-----|
|-0-----|
|-0-----| repeat x8
|-0-----|
  H

|-----0-|
|-----3-|
|-----2-|
|-----0-|
|-----0-|
|-3-2^0-|


Guitar 2
|---------------|
|---------------|
|-7-------9--11-|
|---------------|
|-5-------7--9--| octave progression thingy
|---------------|

Guitar 3
|-------|
|-------|
|-------|
|-------|
|-------| chords that can't be heard
|-------| but listen to self-titled, it's much more audible

            
            
Suggest correction
Creating personal tab
Creating personal tab
You can edit any tab online and save it as your Personal.

You can edit, replace or remove any tab part or add personal notes – all changes will be seen only by you.

Personal tabs can be accessed anytime from any device, even offline.
Learn more »
comments
print report bad tab
1 comment total.
+1 reply
Chris-W-11 16 Aug 16, 2008 04:41 PM

Good Work Mate. Great Tab!!!

guest
You may want to rate the tab now too:
select rating
Wanna post a correction for this tab? Suggest correction