Oops, an error
Loading. Please wait.

When Darkness Falls tab

version 4
version 4

Whole song

Interactive

6,618 views 3 this week
5 commentsread comments
1 2 3 4 5
x 8
add to favorites
×
Save as Personal and add changes to this tab that will be seen only by you. Learn more ›
×
You can save this tab as Personal to edit and correct it or add notes. All changes will be seen only by you. Learn more »
launch autoscroll
font size
0
reset
how to read this tab
guitar tuner
backing track
0:00
0:00
edit
Autoscroll
slow
fast
+/-
esc
set tempo
stop
Author
Killswitch Engage
"When Darkness Falls" from The End of Heartache - Song #3
Tabbed by: shredyr
E-mail: hollowseedaxeman@hotmail.com
Any comments or requests, please e-mail me...

Tuning: C G C F A D (low to high) thicker strings will help a lot here, i suggest 12-56 ;)
bpm:180
» intro
D|-----------------------|-----------------------|----------------------|
A|-----------------------|-----------------------|---8-8-8-8--7-7-7-7---|
F|-----------------------|-----------------------|---x-x-x-x--x-x-x-x---|
C|-----------------------|-----------------------|---5-5-5-5--4-4-4-4---|
G|---4-----3-----5\4-----|--4-----3-----5\4------|----------------------|
C|---4--0--3--0--5\4--0--|--4--0--3--0--5\4--0---|----------------------|
      pm.     .       .        .     .       .

D|-----------------|
A|-----------------|
F|-----------------|
C|-----------------|
G|---4---3---------|
C|---4---3---3*~---|
   pm.   .

second guitar plays the first chord about 32 times
...and about 16 for the second and third, listen closely for this part
D|-----------------------------|
A|---4------------/7------\4---|
F|---x-------------x-------x---|
C|---1------------/4------\1---|
G|-----------------------------|
C|-----------------------------|

» verse
second part is at the end, not necessarily linked together
D|------------------------------|-------------------------|
A|------------------------------|-------------------------|
F|------------------------------|-------------------------|
C|------------------------------|-------------------------|
G|---4-----3-----5\4-----4------|---0--4--3--0--1---------|
C|---4--0--3--0--5\4--0--4------|---0--4--3--0--1---3*~---|

» pre-chorus
okay, i didnt put this in here, put palm mute TWO 6TH string [C] open
notes BETWEEN each sliding sequence, ...im sure you will figure it out easy enough listen to the cd
D|-------------------------------------------------------------------------------------------------
A|-------------------------------------------------------------------------------------------------
F|--9/10-10-10--9/10-10-10--9/10-10-10--9/10-10-10-10-10-10\9-9-9--10\9-9-9--9/10-10-10--7\5-5-5---
C|--x-----x--x--x-----x--x--x-----x--x--x-----x--x--x--x--x---x-x---x---x-x--x-----x--x--x---x-x---
G|--7/-8--8--8--7/-8--8--8--7/-8--8--8--7/-8--8--8--8--8--8\7-7-7---8\7-7-7--7--8--8--8--5\3-3-3---
C|-------------------------------------------------------------------------------------------------

D|---------------------------------------------------------------------------------------------------
A|--8/10-10-10--8/10-10-10--12/13-13-13--12/13-13-13-13-13-10\8-8-8--10\8-8-8--8/10-10-10--6\3-3-3---
F|--x-----x--x--x--x--x--x---x-----x--x---x-----x--x--x--x--x---x-x---x---x-x--x-----x--x--x---x-x---
C|--5/-7--7--7--5/-7--7--7---9/10-10-10---9/10-10-10-10-10--7\5-5-5---7\5-5-5--5/-7--7--7--3\0-0-0---
G|---------------------------------------------------------------------------------------------------
C|---------------------------------------------------------------------------------------------------

» chorus (correct)
D|----------8--12--8--------------8---10---8-------------8--12--8-------------8------8-------
A|-------------------------------------------------------------------------------------------
F|---9--10------------10---9--10--------------10--9--10------------10--9--10-----10-----10---
C|-------------------------------------------------------------------------------------------
G|-------------------------------------------------------------------------------------------
C|-------------------------------------------------------------------------------------------

second guitar plays this, with chords ringing out
D|-------------------------------------------------|------------|
A|-------------------------------------------------|------------|
F|-------------------------------------------------|------------|
C|---8-------10----0-------10----8-------10----0---|-------10---|
G|---8-------10----0-------10----8-------10----0---|---0---10---|
C|---8-------10----0-------10----8-------10----0---|---0---10---|
                                                     pm.

» breakdown riff (also correct)
D|-----------------------------------------------------|--------------------|----------------------|
A|-----------------------------------------------------|---6h8p6-5----------|----------------------|
F|-----------------------------------------------------|-----------7-5-7~---|----------------------|
C|---0---------1---------------------------------------|--------------------|----------------------|
G|---0---0-0---1------1-0------------------------------|--------------------|----------------------|
C|---0---0-0---1---0--1-0-----0--4--3--1--3--1--0--1---|--------------------|---6-5-3-0--4-3-1-0---|
       pm...       .          ......................               . .          .......  .......

» end of breakdown
D|-------------------|
A|-------------------|
F|-------------------|
C|---8--8----10-10---|
G|---8--8----10-10---|
C|---8--8----10-10---|

» finishing chords
let these ring out
D|--------8------------------|
A|--------x------------------|
F|--------5--------10--------|
C|-----------------10--------|
G|------------------8--------|
C|---------------------------|

..there ya go, once again, i didnt repeat any chorus parts and what not but you can handle it. ENJOY!!!

            
            
Suggest correction
Creating personal tab
Creating personal tab
You can edit any tab online and save it as your Personal.

You can edit, replace or remove any tab part or add personal notes – all changes will be seen only by you.

Personal tabs can be accessed anytime from any device, even offline.
Learn more »
comments
print report bad tab
5 comments total. Showing first comments.
0 reply
6Mike6Man6 10 Apr 30, 2006 12:14 PM

Great Song! Great Tab! thanx man! 5 stars for this!

+1 reply
Metalman75 10 Apr 15, 2007 11:49 AM

i think this is the better of the two 4 star tabs. good job.

but, you forgot one teeny thing...during the pre-chorus, Joel (left speaker) is doing what you tabbed, but Adam (right speaker) is doing this behind the first half of the sliding octave chords...

D|---------------------|
A|---------------------|
F|---------------------|
C|---0---8---10---5----|
G|---0---8---10---5----|
C|---0---8---10---5----|

and then he harmonizes the second half of the sliding octave chords with this...

D|------------------------------------------------------------------A|------------------------------------------------------------------
F|--9/10-10-10--9/10-10-10--9/10-10-10--9/10-10-10-10-10-10\9-9-9---
C|--x-----x--x--x-----x--x--x-----x--x--x-----x--x--x--x--x---x-x---
G|--7/-8--8--8--7/-8--8--8--7/-8--8--8--7/-8--8--8--8--8--8\7-7-7---C|------------------------------------------------------------------

D|---------------------------------------|
A|---------------------------------------|
F|--10/9-9-9--10/9-9-9--9/10-10-10--7----|
C|--x----x-x--x----x-x--x-----x--x--x----|
G|--8/-7-7-7--8/-7-7-7--7/-8--8--8--5----|
C|---------------------------------------|

there ya go. x)

0 reply
Metalman75 10 Apr 15, 2007 12:03 PM

whoops, somehow i totally killed that tab. lemme try and fix that...

D|---------------------------------------------------------------|
A|---------------------------------------------------------------|
F|--9/10-10-10--9/10-10-10--9/10-10-10--9/10-10-10-10-10-10\9-9-9|
C|--x-----x--x--x-----x--x--x-----x--x--x-----x--x--x--x--x---x-x|
G|--7/-8--8--8--7/-8--8--8--7/-8--8--8--7/-8--8--8--8--8--8\7-7-7|
C|---------------------------------------------------------------|

D|---------------------------------------|
A|---------------------------------------|
F|--10/9-9-9--10/9-9-9--9/10-10-10--7----|
C|--x----x-x--x----x-x--x-----x--x--x----|
G|--8/-7-7-7--8/-7-7-7--7/-8--8--8--5----|
C|---------------------------------------|

there (i think.)

and also, instead of the
D|------------------|
A|---8-8-8-8--7-7-7-|
F|---x-x-x-x--x-x-x-|
C|---5-5-5-5--4-4-4-|
G|------------------|
C|------------------|
after the very first riff,
try this for left speaker...
D|-------------------|
A|-------------------|
F|-------------------|
C|-------------------|
G|--4444-3333-6666---| (really fast)
C|-------------------|

and this for right speaker...
D|-----------------------|
A|-----------------------|
F|-----------------------|
C|-----------------------|
G|--8888-7777-10101010---| (those are ten's)
C|-----------------------|

there.

guest
You may want to rate the tab now too:
select rating
Wanna post a correction for this tab? Suggest correction