Oops, an error
Loading. Please wait.

Tan Lejos Tab

version 1
version 1

Whole song

Interactive

457 views 1 this week
no commentswrite comment
1 2 3 4 5
please rate
add to favorites
launch autoscroll
font size
0
reset
how to read this tab
guitar tuner
Autoscroll
slow
fast
+/-
esc
set tempo
stop
Help us to improve Ultimate-Guitar.com Take our survey!
×
Author
Pre-intro

E|---------------------------------------------|
B|---------------------------------------------|
G|-----11---9----11---9----11------------------|x7
D|-0-0---0-0—-0-0—-0-0—-0-0--------------------|
A|---------------------------------------------|
E|---------------------------------------------|

E---------------------------------|
B---------------------------------|
G----11----9----11---9---11-------|
D---------------------------------|
A---------------------------------|
E---------------------------------|

Intro

Guitarra 1
E--------------------------------------------------------------------------|
B--------------------------------------------------------------------------|
G--------------------------------------------------------------------------|
D—-7-7-7-7-7-7-7-7-9-9-9-9-9-9-9-9-----------------12-12-12-12-11-11-11-11-|x2
A—-5-5-5-5-5-5-5-5-7-7-7-7-7-7-7-7-9-9-9-9-9-9-9-9-10-10-10-10-9--9--9--9--|
E----------------------------------7-7-7-7-7-7-7-7-------------------------|

Guitarra 2
E-----------------------------------------|
B-----------------------------------------|
G-7-7-7-7-7-7-7-7-7-7-7-12-12-12-11-11-11-|
D-x-x-x-x-x-x-x-x-x-x-x-x-x-x-x-x-x-x-x-x-|
A-5-5-5-5-5-5-5-5-5-5-5-10-10-10-9--9—-9--|
E-----------------------------------------|

E-----------------------------------------|
B-----------------------------------------|
G-7777/97777/97777/9/12-12-12-11-11-11----|
D-xxxxxxxxxxxxxxxxxxxxxxxxxxxxxxxxxxxxxxx-|
A-5555/75555/75555/7/10-10-10-9--9—9------|
E-----------------------------------------|

Verso: solo bajo y bateria

Coro
Guitarra 1
E--------------------------------------------------------------------------|
B--------------------------------------------------------------------------|
G--------------------------------------------------------------------------|
D—-7-7-7-7-7-7-7-7-9-9-9-9-9-9-9-9-----------------12-12-12-12-11-11-11-11-|x2
A—-5-5-5-5-5-5-5-5-7-7-7-7-7-7-7-7-9-9-9-9-9-9-9-9-10-10-10-10-9--9--9--9--|
E----------------------------------7-7-7-7-7-7-7-7-------------------------|

Guitarra 2
E-------------------------------------------------------------------------|
B-------------------------------------------------------------------------|
G--7-7-7-7-7-7-7-7-9-9-9-9-9-9-9-9-4-4-4-4-4-4-4-4-12-12-12-12-11-11-11-11|
D—-x-x-x-x-x-x-x-x-x-x-x-x-x-x-x-x-x-x-x-x-x-x-x-x--x--x--x--x-x--x--x--x-|x2
A—-5-5-5-5-5-5-5-5-7-7-7-7-7-7-7-7-2-2-2-2-2-2-2-2-10-10-10-10-9--9--9--9-|
E-------------------------------------------------------------------------|

Segundo coro (espero encontrar la solucion....)
Ambas guitarras
E-------------------------------------------------------------------|
B-------------------------------------------------------------------|
G-------------------------------------------------------------------| x2
D-7-7-7-7-7-7-7-7-7-------------------------------------------------|
A-5-5-5-5-5-5-5-5-5-7-7-7-7-7-7-7-7-4-4-4-4-4-4-4-4-5-5-5-5-5-5-5-5-|
E-------------------5-5-5-5-5-5-5-5-2-2-2-2-2-2-2-2-3-3-3-3-3-3-3-3-|

Coro (estas tan lejos, estan tan lejos...)
Guitarra 1
E--------------------------------------------------------------------------|
B--------------------------------------------------------------------------|
G--------------------------------------------------------------------------|
D—-7-7-7-7-7-7-7-7-9-9-9-9-9-9-9-9-----------------12-12-12-12-11-11-11-11-|x4
A—-5-5-5-5-5-5-5-5-7-7-7-7-7-7-7-7-9-9-9-9-9-9-9-9-10-10-10-10-9--9--9--9--|
E----------------------------------7-7-7-7-7-7-7-7-------------------------|

Guitarra 2
E------------------------------------------|
B------------------------------------------|
G-7-7-7-7-7-7-7-/-12-12-12-12-12-12--------|
D-x-x-x-x-x-x-x---x-x-x-x-x-x-x-x-x--------|x8
A-5-5-5-5-5-5-5-/-10-10-10-10-10-10--------|
E------------------------------------------|

Interludio

Guitarra2
e|--------------------------|
b|---7----7---7----7---7----|
g|----7----7---7----7---7---|
d|--0-------------5---------| x4
a|------7-------------------| 
e|-----------7--------------|

e|------------------------------------|
b|---7--7-7---7--7-7--7-7-7--7-7-7----|
g|----7--7-----7--7----7-7----7-7-----|
d|--0-----------------------5---------| x2
a|-----------7------------------------| 
e|-------------------7----------------|

Guitarra 1 (entra en la ultima vuelta)
E-----------------------------------------------------|
B-----------------------------------------------------|
G-----------------------------------------------------|
D—-7-7-7-7-7-7-7-7-9-9-9-9-9-9-9-9-----------------12-|
A—-5-5-5-5-5-5-5-5-7-7-7-7-7-7-7-7-9-9-9-9-9-9-9-9-10-|
E----------------------------------7-7-7-7-7-7-7-7----|

Coro (no puedo mas...)
Guitarra 1
E--------------------------------------------------------------------------|
B--------------------------------------------------------------------------|
G--------------------------------------------------------------------------|
D—-7-7-7-7-7-7-7-7-9-9-9-9-9-9-9-9-----------------12-12-12-12-11-11-11-11-|
A—-5-5-5-5-5-5-5-5-7-7-7-7-7-7-7-7-9-9-9-9-9-9-9-9-10-10-10-10-9--9--9--9--|
E----------------------------------7-7-7-7-7-7-7-7-------------------------|

Guitarra 2
E-------------------------------------------------------------------------|
B-------------------------------------------------------------------------|
G--7-7-7-7-7-7-7-7-9-9-9-9-9-9-9-9-4-4-4-4-4-4-4-4-12-12-12-12-11-11-11-11|
D—-x-x-x-x-x-x-x-x-x-x-x-x-x-x-x-x-x-x-x-x-x-x-x-x--x--x--x--x-x--x--x--x-|
A—-5-5-5-5-5-5-5-5-7-7-7-7-7-7-7-7-2-2-2-2-2-2-2-2-10-10-10-10-9--9--9--9-|
E-------------------------------------------------------------------------|

Guitarra 1
E---------------------------------------------------------------|
B---------------------------------------------------------------|
G---------------------------------------------------------------|
D—-7-7-7-7-7-7-7-7-9-9-9-9-9-9-9-9-----------------12-12--11-11-|
A—-5-5-5-5-5-5-5-5-7-7-7-7-7-7-7-7-9-9-9-9-9-9-9-9-10-10---9--9-|
E----------------------------------7-7-7-7-7-7-7-7--------------|


Guitarra 2
E----------------------------------------------------------------|
B----------------------------------------------------------------|
G--7-7-7-7-7-7-7-7-9-9-9-9-9-9-9-9-4-4-4-4-4-4-4-4-12-12--11-11--|
D—-x-x-x-x-x-x-x-x-x-x-x-x-x-x-x-x-x-x-x-x-x-x-x-x--x--x---x--x--|x2
A—-5-5-5-5-5-5-5-5-7-7-7-7-7-7-7-7-2-2-2-2-2-2-2-2-10-10---9--9--|
E----------------------------------------------------------------|

Outro:
Guitarra 1
E--------------------------------------------------------------------------|
B--------------------------------------------------------------------------|
G--------------------------------------------------------------------------|
D—-7-7-7-7-7-7-7-7-9-9-9-9-9-9-9-9-----------------12-12-12-12-11-11-11-11-|x2
A—-5-5-5-5-5-5-5-5-7-7-7-7-7-7-7-7-9-9-9-9-9-9-9-9-10-10-10-10-9--9--9--9--|
E----------------------------------7-7-7-7-7-7-7-7-------------------------|

Guitarra 2
E------------------------------------------|
B------------------------------------------|
G-7-7-7-7-7-7-7-/-12-12-12-12-12-12--------|
D-x-x-x-x-x-x-x---x-x-x-x-x-x-x-x-x--------|x3 
A-5-5-5-5-5-5-5-/-10-10-10-10-10-10--------|
E------------------------------------------|

E-------------------------|
B-------------------------|
G-12-12-12-12-11-11-11-11-|
D--x-x-x-x-x--x--x--x--x--|
A-10-10-10-10-9--9--9--9--|
E-------------------------|

Guitarra 1
E--------------------------------------------------------------------------|
B--------------------------------------------------------------------------|
G--------------------------------------------------------------------------|
D—-7-7-7-7-7-7-7-7-9-9-9-9-9-9-9-9-----------------12-12-12-12-11-11-11-11-|
A—-5-5-5-5-5-5-5-5-7-7-7-7-7-7-7-7-9-9-9-9-9-9-9-9-10-10-10-10-9--9--9--9--|
E----------------------------------7-7-7-7-7-7-7-7-------------------------|

Guitarra 2
E-------------------------------------------------------------------------|
B-------------------------------------------------------------------------|
G--7-7-7-7-7-7-7-7-9-9-9-9-9-9-9-9-4-4-4-4-4-4-4-4-12-12-12-12-11-11-11-11|
D—-x-x-x-x-x-x-x-x-x-x-x-x-x-x-x-x-x-x-x-x-x-x-x-x--x--x--x--x-x--x--x--x-|
A—-5-5-5-5-5-5-5-5-7-7-7-7-7-7-7-7-2-2-2-2-2-2-2-2-10-10-10-10-9--9--9--9-|
E-------------------------------------------------------------------------|

Guitarra 1
E-----------------------------------------------------------------|
B-----------------------------------------------------------------|
G-----------------------------------------------------------------|
D—-7-7-7-7-7-7-7-7-9-9-9-9-9-9-9-9-----------------12-12--11-11-7-|
A—-5-5-5-5-5-5-5-5-7-7-7-7-7-7-7-7-9-9-9-9-9-9-9-9-10-10---9--9-5-|
E----------------------------------7-7-7-7-7-7-7-7----------------|

Guitarra 2
E-----------------------------------------------------------------|
B-----------------------------------------------------------------|
G--7-7-7-7-7-7-7-7-9-9-9-9-9-9-9-9-4-4-4-4-4-4-4-4-12-12--11-11-7-|
D—-x-x-x-x-x-x-x-x-x-x-x-x-x-x-x-x-x-x-x-x-x-x-x-x--x--x---x--x-x-|
A—-5-5-5-5-5-5-5-5-7-7-7-7-7-7-7-7-2-2-2-2-2-2-2-2-10-10---9--9-5-|
E-----------------------------------------------------------------|
Suggest correction
What's this?
You can suggest a correction to this tab. Community and Mods will review your correction and vote to approve or reject it.
comments
We did not receive enough feedback on this tab! Please rate:
print report bad tab
1 2 3 4 5
guest
You may want to rate the tab now too:
select rating
Please do not post tabs as comments. Select "correction" instead!