Oops, an error
Loading. Please wait.

Crazy Love tab

version 1
version 1

Whole song

5,266 views 1 this week
3 commentsread comments
1 2 3 4 5
1 last vote to show rating
add to favorites
×
Save as Personal and add changes to this tab that will be seen only by you. Learn more ›
×
You can save this tab as Personal to edit and correct it or add notes. All changes will be seen only by you. Learn more »
launch autoscroll
font size
0
reset
how to read this tab
guitar tuner
edit
Autoscroll
slow
fast
+/-
esc
set tempo
stop
Author
Difficulty
Crazy Love By Kim Chiu

I dedicAte dS Tab 2 Ms. Rosellini ann Raphaelle Valdez....(0_o)...


Tabbed By: Ric Tobias
Friendster: Rtob_03@yahoo.com..


Intro:

Guitar 1:
E----------------------------------------------|
B-2----2---5-------5—-2--2s3p0-----------------|
G-----2---------6---------------2--1-----------|
D----2--------6--------------------2-----------|2x
A-0--------4----------2------------2-----------|
E----------------------------------------------|

Guitar 2:
E-----------12---------------12-------------------|
B--10---12-----12---10---12------12--14--15-------|
G-------------------------------------------------|2x
D-------------------------------------------------|
A-------------------------------------------------|
E-------------------------------------------------|

Verse:

E-------4----2--------------------|
B---2---5----3--------------------|
G---1---6----4----1---------------|2x
D---2---6----4----2---------------|
A-------4----2----2---------------|
E---------------------------------|

I hate the way you walk
Hate the way you talk
Hate the way you look at me
I hate the way you smile
Hate those big brown eyes
Cause I know they're not for me

Refrain:

E---2~----4----2-----------------|
B---2~----5----3-----------------|
G---2~----6----4----1------------|2x
D---------6----4----2------------|
A---------4----2----2------------|
E--------------------------------|

Cause we can never be
More than friends
And it hurts me
Every time I close my eyes
All I see is you

Chorus:

E-----4----2----2----------------|
B-----5----2----3----------------|
G-----6----2----4----1-----------|2x
D-----6----4----4----2-----------|
A-----4----4----2----2-----------|
E----------2---------------------|

And this crazy love, Crazy love
Oh, this crazy love, Crazy love.. (Intro)

Verse 2:

E-------4----2--------------------|
B---2---5----3--------------------|
G---1---6----4----1---------------|2x
D---2---6----4----2---------------|
A-------4----2----2---------------|
E---------------------------------|

I hate thinking of you
Cause every time I do
I just keep on missing you
And I hate the way I feel
Every time you're near
Cause its feels like time
is standing still

Refrain 2:

E---2~----4----2-----------------|
B---2~----5----3-----------------|
G---2~----6----4----1------------|2x
D---------6----4----2------------|
A---------4----2----2------------|
E--------------------------------|

But we can never be
More than friends
And it hurts me
Every time I close my eyes
All I see is you

Chorus:

E-----4----2----2----------------|
B-----5----2----3----------------|
G-----6----2----4----1-----------|2x
D-----6----4----4----2-----------|
A-----4----4----2----2-----------|
E----------2---------------------|

And this crazy love, Crazy love
Oh, this crazy love, Crazy love.. (Intro)

Verse 3:

E-------4----2--------------------|
B---2---5----3--------------------|
G---1---6----4----1---------------|2x
D---2---6----4----2---------------|
A-------4----2----2---------------|
E---------------------------------|

I hate it when you're blue
And how I cared for you
Hate the way my heart desires
And I hate those sleepless nights
And the pain I kept inside
But I keep on pretending it's alright

Refrain 3:

E---2~----4----2-----------------|
B---2~----5----3-----------------|
G---2~----6----4----1------------|2x
D---------6----4----2------------|
A---------4----2----2------------|
E--------------------------------|

But we can never be
More than friends
And it hurts me
Every time I close my eyes
All I see is you

Chorus:

E-----4----2----2----------------|
B-----5----2----3----------------|
G-----6----2----4----1-----------|2x
D-----6----4----4----2-----------|
A-----4----4----2----2-----------|
E----------2---------------------|

Last Verse: ( Timing nyo Lang )

E--------------------------------|
B---2---5---3---9----2-----------|
G--------------------2-----------|
D--------------------2-----------|
A---0---4---2---7----------------|
E--------------------------------|

I don't know what to do
Hate me for loving you
Cause I know it's wrong for
me to say...I love you...
Suggest correction
Creating personal tab
Creating personal tab
You can edit any tab online and save it as your Personal.

You can edit, replace or remove any tab part or add personal notes – all changes will be seen only by you.

Personal tabs can be accessed anytime from any device, even offline.
Learn more »
Give kudos to tab author, rate the tab!
1 2 3 4 5
comments
print report bad tab
3 comments total.
0 reply
clinette 10 Sep 05, 2007 03:37 AM

TNx sA TAb...

0 reply
winsetlovesyou 10 Sep 21, 2007 01:10 AM

nice! W:-)

0 reply
RiCkizTa Tobias 660 Sep 21, 2007 02:55 AM

AyOS bA?..hehe...sALAmat rin..

guest
You may want to rate the tab now too:
select rating
Wanna post a correction for this tab? Suggest correction