Oops, an error
Loading. Please wait.

Window To The Sky Tab

version 1
version 1

Whole song

11,310 views 30 this week
1 commentread comment
1 2 3 4 5
accurate
x 6
add to favorites
launch autoscroll
font size
0
reset
how to read this tab
guitar tuner
Autoscroll
slow
fast
+/-
esc
set tempo
stop
Help us to improve Ultimate-Guitar.com Take our survey!
×
Author
Difficulty
intermediate
INTRO AND VERSE


E|-----------------------------------------------------2---------2---------|
B|-----3--------3--------3--------3--------3--------3--------3---------3---|
G|-------2--------2--------2--------2--------2--------2--------2---------2-|
D|---------------------------------------0--------0------------------------|
A|-0-2------0-2------0-2------0-2------0--------0----------2--------2------|
E|-------------------------------------------------------------------------| x5


BRIDGE

E|-----------------0--2--------------------------------------0--2--0--3--2-----3--2-----|
B|-----------2--3-----------3--0-----3--0--------------2--3-----------------0--------2--|
G|-----2--4--------------------------------------2--4-----------------------------------|
D|--2-----------------------------------------2-----------------0--2--2--0--0--2--0-----|
A|-----------------------2--------2--------------------------------------------------0--|
E|--------------------------------------------------------------------------------------|


CHORUS

E|-----------------------------------------------------2---------2---------|
B|-----3--------3--------3--------3--------3--------3--------3---------3---|
G|-------2--------2--------2--------2--------2--------2--------2---------2-|
D|---------------------------------------0--------0------------------------|
A|-0-2------0-2------0-2------0-2------0--------0----------2--------2------|
E|-------------------------------------------------------------------------| x2


VERSE

E|-----------------------------------------------------2---------2---------|
B|-----3--------3--------3--------3--------3--------3--------3---------3---|
G|-------2--------2--------2--------2--------2--------2--------2---------2-|
D|---------------------------------------0--------0------------------------|
A|-0-2------0-2------0-2------0-2------0--------0----------2--------2------|
E|-------------------------------------------------------------------------|   x2

BRIDGE

E|-----------------0--2------------------------------0--2--0--3--2-----3--2-----|
B|-----------2--3--------0---------------------2--3-----------------0--------2--|
G|-----2--4------------------------------2--4-----------------------------------|
D|--2---------------------------------2-----------------0--2--2--0--0--2--0-----|
A|---------------------------------------------------------------------------0--|
E|------------------------------------------------------------------------------|


CHORUS

E|-----------------------------------------------------2---------2---------|
B|-----3--------3--------3--------3--------3--------3--------3---------3---|
G|-------2--------2--------2--------2--------2--------2--------2---------2-|
D|---------------------------------------0--------0------------------------|
A|-0-2------0-2------0-2------0-2------0--------0----------2--------2------|
E|-------------------------------------------------------------------------|  x3

E|-----------------------------|
B|--0--3--2--0--3--2--0--------|
G|-----------------------2--1--|
D|--2--0--2--0--0--2--0--0-----|
A|--------------------------2--|
E|-----------------------------|


CHORUS

E|-----------------------------------------------------2---------2---------|
B|-----3--------3--------3--------3--------3--------3--------3---------3---|
G|-------2--------2--------2--------2--------2--------2--------2---------2-|
D|---------------------------------------0--------0------------------------|
A|-0-2------0-2------0-2------0-2------0--------0----------2--------2------|
E|-------------------------------------------------------------------------| x7


E|-----------------0--2--------------|
B|-----------2--3--------------2--0--|
G|-----2--4--------------------------|
D|--2--------------------------2--0--|
A|-----------------------------------|
E|-----------------------------------|
Suggest correction
comments
print report bad tab
1 comment total.
+2 reply
charliesells 230 wrote on July 19 2014, 04:20 am

Lack of accuracy.

guest
You may want to rate the tab now too:
select rating
Wanna post a correction for this tab? Suggest correction