Oops, an error
Loading. Please wait.

Because Im Stupid tab

940 views 105 this week
no commentswrite comment
1 2 3 4 5
3 more votes to show rating
add to favorites
×
Save as Personal and add changes to this tab that will be seen only by you. Learn more ›
×
You can save this tab as Personal to edit and correct it or add notes. All changes will be seen only by you. Learn more »
launch autoscroll
font size
0
reset
how to read this tab
guitar tuner
edit
Autoscroll
slow
fast
+/-
esc
set tempo
stop
About this tab version
Includes solo and intro. As detailed as possible. Includes lyrics to play along to as a guide. Was this info helpful? Yes No
Kim Hyun Joong - Because I'm Stupid Acoustic Version
Tuning - Standard with Guitar Capo on 1st Fret
Play along with my cover here! ->https://www.youtube.com/watch?v=LgOZ9fUZaZA

[Intro]
   C                 Am                   C               Am
E|-----0h3p0----------------------------------0h3p0-----3-0-----------|
B|-----------1-3-1-0-1------1-0---------------------1-3---1----1------|
G|---0---------------2----------2-----------0-------------2----2------|
D|-------------------2------------2-----------------------2-----------|
A|-3--------------------2/3---------0-2-2/3------------------0----0-2-|
E|--------------------------------------------------------------------|

     C                Am                  C  
E|-------0h3p0----------------------------------0h3p0-----3--3/5~-----|
B|-------------1-3-1-0-1------1-0---------------------1-3-------------|
G|-----0---------------2----------2-----------0-----------------------|
D|---------------------2------------2---------------------------------|
A|-2/3--------------------2/3---------0-2-2/3-------------------------|
E|--------------------------------------------------------------------|

Nae moriga neomuna nappaseo, Neo hanapakke nan moreugo
   Am              Em            F         G        C
E|-------0---------------0-------------1---------3-------0--|
B|-------1---------------0-----------1---------3---------1--|
G|-----2---------------0-----------2---------4---------0----|
D|---2-----------------------------------------------2------|
A|-0-----------------2-----------------------------3--------|
E|-----------------0-------------1---------3----------------|

Tareun sarameun pogoittneun neon,   Ireon naema-urmdo moreugettji
       F       G            C              F          G       Am
E|-----------1-------3------------0-0-----------1-----------3----------|
B|---------1-------3--------------1---3-2-----1-----------3------------|
B|-------2-------4--------------0-----------2-----------4---------2-1--|
D|----------------------------2---------------------------------2-2----|
A|--------------------------3---------------------------------0--------|
E|-----1-------3--------------------------1-----------3-------------0--|

     Neoui harue naran eoptgettji, Tto chu’eokjoch’a eoptgettjiman
   Am                  Em               F            G       C
E|-0--------0----------0--------0-------1--------1---3-----3-0-----0--|
B|-1--------0----------0--------3-------1--1---------3-3-----1-----1--|
G|-2-----2-------------0-----0--0-------2-----2------4---4---0---0-0--|
D|-2--2----------------2--2-------------3------------5-------2-2------|
A|-0-------------------2----------------3------------5-------3--------|
E|-0-------------------0----------------1------------3-------0--------|

Neoman paraman pogoittneun nan,  Chakku nunmuli heureugoisseo
       F       G          C             F       E       Am
E|-----1-----1-3-----2----0-----0-0-----1-----1-0-----0-0-----0--|
B|-----1-1-----3-3--------1-----1---3-2-1-1-----0-0-----1-0---1--|
G|-----2---2---4---4------0---0-0-------2---2---1---0---2---0-2--|
D|-----3-------5----------2-2-----------3-------2-------2-----2--|
A|-----3-------5----------3-------------3-------2-------0--------|
E|-----1-------3----------0-------------1-------0-------0--------|

F     G    Am        F            G    Am
Neoui dwaetmoseubeul poneungeotdo nan haengbokiya
F         G         Am
Ajik naui ma-eumeul mollado
F                     E
Kkeutnae seuch'ideusi kado

F     G         C         
Niga neomu pogosip'eun nalen
F     G          C
Neomu kyeondigi himdeul naleneun
F     G       Am      
Neoreul saranghanda ipgae maemdola
F      G       Am
Honja dasi tto crying for you
F      G       Am
Honja dasi tto missing for you
F      G             Am
Baby I love you, I'm waiting for you

     Neoui harue naran eoptgettji, Tto chu’eokjoch’a eoptgettjiman
   Am                  Em               F            G       C
E|----------0-------------------0----------------1---------3-------0--|
B|----------1-------------------0-------------1----------3---------1--|
G|-------2-------------------0-------------2-----------4---------0----|
D|----2--------------------------------------------------------2------|
A|------------------------2----------------------------------3--------|
E|-0-------------------0----------------1------------3----------------|

Neoman paraman pogoittneun nan,  Honja ch’ueokeul mandeulgo isseo
       F       G          C             F       E       Am
E|-----------1-------3----------0-0-----1-----1-0-----0-0-----0--|
B|---------2-------3------------1---3-2-1-1-----0-0-----1-0---1--|
G|-------2-------4------------0-0-------2---2---1---0---2---0-2--|
D|--------------------------2-----------3-------2-------2-----2--|
A|------------------------3-------------3-------2-------0--------|
E|-----1-------3------------------------1-------0-------0--------|

F      G      Am        F   G     Am  
Naegen sarangiran areumdaun sangch'eokat'a
F             G        Am     
Neoui yeppeun misoreul poado
F                 E
Hamkke nan utjido mothae

F     G         C         
Niga neomu saenggaknanuen nalen
F     G          C
Kaseum sirigo seulp’eun naleneun
F     G         Am      
Niga pogosip’ta ipgae maemodola
F      G       Am
Honja dasi tto crying for you
F      G       Am
Honja dasi tto missing for you
F      G             Am
Baby I love you, I'm waiting for you

[Solo]                                                                                                 
E|---------------------------------9-9~-6b--6-------------------0-------------|
B|--------2-4--2-4b-2h4-2h4-4~-4h6------------4---4p0-2---------1-/4~--2h4-4--|
G|-0h3----0-0--0-0------------------------------------0--3--0h3---------------|
D|-0h3------------------------------------------------------0h3---------------|
A|----------------------------------------------------------------------------|
E|----------------------------------------------0-----------------------------|

                               E        E7      E            Am AmAm  AmAmAm
E|-4h6p4-0-9-9/11~--11-9-11-9--0--4/9---0-------0------------0--0-0-x-0-0-0---|
B|-----------------------------0------9-4-2p0h2-0-4h-2-4-0-2-2--2-2-x-2-2-2h4-|
G|-----------------------------2--------2-------2------------3--3-3-x-3-3-3---|
D|-----------------------------3--------3-------3------------3--3-3-x-3-3-3---|
A|-----------------------------3--------3-------3-----------------------------|
E|----------------------------------------------------------------------------|

F     G       Am
Bye, bye, never say goodbye
F       G       Am
Ireohke chapji mothajiman
F      G       C     Em     Am   Em
I need you amu maldo mothae I want you
F             E
Paraedo dasi paraedo

F     G         C         
Niga neomu pogosip'eun nalen
F     G          C
Neomu kyeondigi himdeul naleneun
F     G       Am      
Neoreul saranghanda ipgae maemdola
F      G       Am
Honja dasi tto missing for you

F     G         C         
Niga neomu saenggaknanuen nalen
F     G          C
Kaseum sirigo seulp’eun naleneun
F     G       C      
Niga pogosip’ta ipgae maemodola
F      G       Am
Honja dasi tto crying for you
F      G       Am
Honja dasi tto missing for you
F      G             Am
Baby I love you, I'm waiting for you
Suggest correction
Creating personal tab
Creating personal tab
You can edit any tab online and save it as your Personal.

You can edit, replace or remove any tab part or add personal notes – all changes will be seen only by you.

Personal tabs can be accessed anytime from any device, even offline.
Learn more »
Give kudos to tab author, rate the tab!
1 2 3 4 5
comments
print report bad tab
guest
You may want to rate the tab now too:
select rating
Wanna post a correction for this tab? Suggest correction