Oops, an error
Loading. Please wait.

Hva Gr Vi Nu Lille Du tab

1,309 views 12 this week
no commentswrite comment
1 2 3 4 5
3 more votes to show rating
add to favorites
×
Save as Personal and add changes to this tab that will be seen only by you. Learn more ›
×
You can save this tab as Personal to edit and correct it or add notes. All changes will be seen only by you. Learn more »
launch autoscroll
font size
0
reset
how to read this tab
guitar tuner
edit
Autoscroll
slow
fast
+/-
esc
set tempo
stop
Author
Hva gør vi nu lille du - Kim Larsen / Gasolin
Analyzed, construed and written down by M Lakestone, Växjö October 2013


Intro:

 C                                                 
e:|-------0-1-0-1---0---------------|
B:|-----1-------------1---1-----1---|
G:|---0-----------0-----0-----0---0-| x 2
D:|---------------------------------|
A:|-3-----3-3-3-3---3-------3-------|
E:|---------------------------------|

Verse.

 C                  G                 C                 C
e:|-----------------|-----------------|---------0-------|-------0-0---0-0---0---0---|
B:|-------1-1---1---|-3---3-3-0---0---|-1-----------1---|-------1-1---1-1---1---1---|
G:|-----0-0-0---0---|-0---0-0---2-----|---0---0---0---0-|-----0-----0-----0---0---0-|
D:|---2-------2---2-|---0-----------0-|-----2-----------|---2-----------------------|
A:|-3-----3-3---3---|-----------------|-3---------------|-3-----3-3---3-3---3---3---|
E:|-----------------|-3---------------|-----------------|---------------------------|
         Jeg kom til verden på femte sal                       Min far var tosset min ...

 F          C                 C                 G         F         C
e:|-1---1---|-0---------------|-----------------|---------|---1-----|----------0-------|
B:|-1---1---|---1---1-----1---|-------1-1---1---|-0---0-0-|-----1---|-h1-----------1---|
G:|---2---2-|-----0-----0---0-|-----0-0-0---0---|-0---0-0-|-2-----2-|----0---0---0---0-|
D:|---------|-----------------|---2-------2---2-|---0-----|---3-----|------2-----------|
A:|---------|-3-------3-------|-3-----3-3---3---|---------|---------|-h3---------------|
E:|-1---1---|-----------------|-----------------|-3---3-3-|-1-------|------------------|
  
   mor var normal                    Men da de kørte ham væk, sagde moar til mig

  C    C#    Dm/A                 G         F         C
e:|-----|-----|---------1-1---0---|---------|---------|----------0-------|
B:|-1---|-2---|-3-----------------|-3-------|-1---1---|-h1-----------1---|
G:|-----|-----|---2---2-----2---2-|---0---0-|-2---2---|----0---0---0---0-|
D:|---2-|---3-|-----0---0-0-------|-----0---|---3---3-|------2-----------|
A:|-3---|-4---|-0-----------------|---------|---------|-h3---------------|
E:|-----|-----|-------------------|-3-------|-1---1---|------------------|

                       Hva' gør vi nu       lille       du

 
Verse 1:
Jeg kom til verden på femte sal.
Min far var tosset min mor var normal.
Men da de kørte ham væk, sagde moar til mig.   
Hva' gør vi nu, lille du.

Verse 2:
Jeg gik i skole i mange år.
Røg på fabrik og fik mavesår.
Men så en dag sparked' bossen mig ud.
Hva' gør man så, lille du.

Verse 3:
Og tiden gik og jeg gik med.
Jeg fløj af sted fra sted til sted.
Og gadens løse fugle de fjøjted' og sang.
Hvor skal vi hen, lille du.

Speak Verse:
Men så en dag gik jeg op til ministeren og sa':
Du der få lige fødderne ned og ta' hatten af,
mand, kan du ikk' se at det hele er ved at gå fuldstændig agurk?
Så hva' gør vi nu din gamle skurk.

Men han grinte bar' og sagde:
Dig du ka' squ gå fanden i vold.           
Så det gør vi nu, lille du. Ja vi gør...

            
            
Suggest correction
Creating personal tab
Creating personal tab
You can edit any tab online and save it as your Personal.

You can edit, replace or remove any tab part or add personal notes – all changes will be seen only by you.

Personal tabs can be accessed anytime from any device, even offline.
Learn more »
Give kudos to tab author, rate the tab!
1 2 3 4 5
comments
print report bad tab
guest
You may want to rate the tab now too:
select rating
Wanna post a correction for this tab? Suggest correction