Oops, an error
Loading. Please wait.

Jyllingevej Tab

16 views 3 this week
no commentswrite comment
1 2 3 4 5
3 more votes to show rating
add to favorites
launch autoscroll
font size
0
reset
how to read this tab
guitar tuner
Autoscroll
slow
fast
+/-
esc
set tempo
stop
Help us to improve Ultimate-Guitar.com Take our survey!
×
Author
Difficulty
intermediate
[Intro]
E|------------------------12-|-------------------|----------------------------------------|
B|----------8-8---------8----|-8-8-----8-8-------|-8-8------------------------------------|
G|-7v-----------9p(7)-9------|-----9p7-----9-----|-----9-9--------------------------------|
D|---------------------------|-------------------|---------8/7-7p5h7p5----5-7-5h7--7p5----|
A|---------------------------|---------------0\7-|---------------------7---------------7v-|
E|---------------------------|---------------0\7-|----------------------------------------|

[Verse 1]
"Der var fire på en cykel på Jyllingevej
Viggo, Muhammed, Jørgen og Kaj"
  (A)
E|----|
B|----|
G|-9--|
D|-7--|
A|----|
E|----|

"det var nat og klokken slog tolv"

E|-12v-|
B|-----|
G|-----|
D|-----|
A|-----|
E|-----|

"da de blev standset af en bondeknold"

[Verse 2]
"Det var den flinke politibetjent
som sagde: 'Det kan I ikke være bekendt'"

E|----|
B|-5v-|
G|----|
D|----|
A|----|
E|----|

"uden lys og lygte på"

E|-----------|
B|-----------|
G|-----------|
D|-8\7-(5)---|
A|---------7-|
E|-----------|

"det må man ikke kan I nok forstå"

E|--------|
B|--------|
G|--------|
D|--------|
A|-4h5\7v-|
E|--------|

[Verse 3]
"Og skrev med lovens lange arm
uden lys og ude på larm"

E|-------|
B|-------|
G|-------|
D|-8\7---|
A|-----7-|
E|-------|

"fire år hver I får"

E|-7\12-12-12|
B|-7\12-12-12|
G|-----------|
D|-----------|
A|-----------|
E|-----------|

"det gir tilsammen cirka seksten år"

[Verse 4]
(Use a metal slide and pick one string at a time, but quickly.)
E|------|
B|------|
G|--4\5-|
D|-4-\5-|
A|------|
E|------|

"Nu sidder de på vand og brød"

E|------|
B|------|
G|--5\7-|
D|--5\7-|
A|------|
E|------|

"og keder sig i Horselillerød"

E|------|
B|------|
G|--4\5-|
D|--4\5-|
A|------|
E|------|

"Viggo, Muhammed"

E|------|
B|--7\9-|
G|--7\9-|
D|------|
A|------|
E|------|

"...Jørgen og Kaj
farvel til Jyllingevej"

End of metal slide usage

Bass plays this, but it still sounds good on guitar.
E|---------|
B|---------|
G|---------|
D|---------|
A|---------|
E|-5-3-1-0-|

[Solo]
E|----------------------------------------|--------------------|
B|-8\10-10-8-10----11-11-12-12-13-13-15\0-|----------------4\5-|
G|----------------------------------------|---4\3---4\3----3\4-|
D|-5\7--7--5-7-----8--8--9--9--10-10-12\3-|-3----(3)---(3)-----|
A|----------------------------------------|--------------------|
E|----------------------------------------|--------------------|

[Break]
E|--------|
B|--------|
G|--------|
D|--------|
A|-4h5\7v-|
E|--------|

[Verse 5]
"De sidder der og tænker på
hvordan det med deres cykel skal gå"

E|-12v-|
B|-----|
G|-----|
D|-----|
A|-----|
E|-----|

        "For den blev scoret som bekendt"
E|------------------------------------------|
B|----------------------------------------3-|
G|-----7--------------------3-----2-------2-|
D|-----7--------------------3-----2-------0-|
A|-----5--------------------1-----0---------|
E|------------------------------------------|

"af den flinke politibetjent"

E|--------|
B|--------|
G|--------|
D|--------|
A|-4h5\7v-|
E|--------|

[Verse 6]
"Som kører rundt på Jyllingevej"

E|-------|
B|-------|
G|-------|
D|-8\7---|
A|-----7-|
E|-------|

"I tror vi lyver, næ gu gør vi ej!"
While pulling off, bend the D string a little
E|-------|
B|-------|
G|-------|
D|-8p7---|
A|-----7-|
E|-------|

"han har lys og lygte på
så hvis I ser ham så pas hellere på"

[Verse 7]
"Der var fire på en cykel på Jyllingevej"
  (A)
E|----|
B|----|
G|-9--|
D|-7--|
A|----|
E|----|

"Viggo, Muhammed, Jørgen og Kaj"
  (A)
E|----|
B|----|
G|-9--|
D|-7--|
A|----|
E|----|

"det var nat og klokken slog tolv"

E|-12v-|
B|-----|
G|-----|
D|-----|
A|-----|
E|-----|

"da de blev standset af en bondeknold..."
  (A)
E|-----------5-|
B|---------5---|
G|-------6-----|
D|-----7-------|
A|---7---------|
E|-5-----------|

[Solo]
E|---------------------------------------------------------------------------------|
B|-10b11-10b11-10b11-10b11-10b11-10b11-10b11-10b11r10p8----------8---8---8---8---8-|
G|------------------------------------------------------9-9----9---9---9---9---9---|
D|---------------------------------------------------------------------------------|
A|---------------------------------------------------------------------------------|
E|---------------------------------------------------------------------------------|

E|----------------------|
B|-8v-----8-------------|
G|----9-9---9\7---------|
D|--------------7-7\5---|
A|--------------------7-|
E|----------------------|

(In this next part he basically does a rundown of the blues scale very quickly. 
I'm not good enough to tab out exactly what he plays, so I've tabbed a basic version, 
but you can add notes if you feel like it. Feel free to suggest a better version.)
E|--------------7-10---10------15----------------------------------------|
B|---------8-10------7----7\12----12-------------------------------------|
G|-----7-9---------------------------14-12----------------------------12-|
D|---9-------------------------------------14-12----------------12-14----|
A|-7---------------------------------------------14-12----12-14----------|
E|-----------------------------------------------------15----------------|

E|----------------------------------------------------|
B|-11-10-11-10-10p8-----8-10\11-11----11-10-8---------|
G|------------------9-9-----------------------9-7-----|
D|------------------------------------------------7---|
A|--------------------------------------------------7-|
E|----------------------------------------------------|


************************************

| p    Pull-off
| h    Hammer-on
| /    Slide up
| \    Slide down
| (n)  Ghost note
| r    Release
| b    Bend
 
************************************
Suggest correction
Give kudos to tab author, rate the tab!
1 2 3 4 5
comments
print report bad tab
guest
You may want to rate the tab now too:
select rating
Wanna post a correction for this tab? Suggest correction