Oops, an error
Loading. Please wait.

Kom Igen Tab

version 1
version 1

Solo

  • The solo riff is not included in the other tabs of this song.

Whole song

49 views 1 this week
no commentswrite comment
1 2 3 4 5
3 more votes to show rating
add to favorites
launch autoscroll
font size
0
reset
how to read this tab
guitar tuner
×
Best way to learn
"Kom Igen"
Autoscroll
slow
fast
+/-
esc
set tempo
stop
Author
Difficulty
Capo
  follow
novice
2nd fret
About this tab version
The solo riff is not included in the other tabs of this song. Was this info helpful? Yes No
Middle:

E|--0-----0----------------------|--0-----0------------------|
B|-----1-----1--1h3--1--0--5--1--|-----1-----1--0--1--3--1---|
G|-------------------------------|---------------------------|   x2
D|-------------------------------|---------------------------|
A|-------------------------------|---------------------------|
E|-------------------------------|---------------------------|

End:

E|--0-----0----------------------|--0-----0--------------0--|
B|-----1-----1--1h3--1--0--5--1--|-----1-----1--0--1--3--1--|
G|-------------------------------|-----------------------0--|
D|-------------------------------|-----------------------2--|
A|-------------------------------|-----------------------3--|
E|-------------------------------|--------------------------|         

***********************************

| h   Hammer-on

***********************************              
Suggest correction
Give kudos to tab author, rate the tab!
1 2 3 4 5
comments
print report bad tab
guest
You may want to rate the tab now too:
select rating
Wanna post a correction for this tab? Suggest correction