Oops, an error
Loading. Please wait.

Pianomand tab

1,504 views 36 this week
no commentswrite comment
1 2 3 4 5
x 4
add to favorites
×
Save as Personal and add changes to this tab that will be seen only by you. Learn more ›
×
You can save this tab as Personal to edit and correct it or add notes. All changes will be seen only by you. Learn more »
launch autoscroll
font size
0
reset
how to read this tab
guitar tuner
edit
Autoscroll
slow
fast
+/-
esc
set tempo
stop
Pianomand - Kim Larsen, En Torsdag Aften

Første tab nogensinde, konstruktiv kritik velkommen og rettelser vil blive tilføjet!
Tab af: Patrick Andersson

Capo 3. bånd


[Stav 1]

Første 3 noder spilles langsomt før rytmen fastsættes
        C
E|-----0--------------------------------------|
B|-----------3-----1-----------1-----------1--|
G|-----------------------0-----------0--------|
D|--------------------------------------------|
A|--3-----3-----3-----3-----3-----3-----3-----|
E|--------------------------------------------|


[Stav 2]        Gentag indtil 1. vers

        C
E|-----0-----------------------------------------------|
B|-----------------3-----1-----------1-----------1-----|
G|-----------0-----------------0-----------0-----------|
D|-----------------------------------------------------|
A|--3-----3-----3-----3-----3-----3-----3-----3--------|
E|-----------------------------------------------------|


[Stav 3]        "Stille blues..."

        C                       F
E|-------------------------------------------------------1--------------|
B|-----------1-----------1-------------1-----------1-----------1--------|
G|-----0-----------0-------------2-----------2-----------------------2--|
D|--------------------------0h3-----3-----3-----3-----3-----3-----3-----|
A|--3-----3-----3-----3-------------------------------------------------|
E|----------------------------------------------------------------------| Direkte tilbage ind i stav 2


[Stav 4]         Ligesom Stav 3, istedet for lille F, bruges normalt Em.

        "Piano...               ...mand..."
        C                       Em
E|--------------------------|-----0-----------0--------|
B|-----------1-----------1--|--------------------------|
G|-----0-----------0--------|-----------0-----------0--|
D|--------------------------|--------------------------|
A|--3-----3-----3-----3-----|--2-----2-----2-----2-----|
E|--------------------------|--------------------------|    Gentag Em indtil næste verslinje


[Stav 5]

    "Hvordan...           ...til...                         ...dø|des...  ...land"
    F                       C                                     Em         Am
E|------------------------------------------------------------------------------------------------------|
B|-------------1-----------1-----------1-----------1-----------1-----------0-------------1-----------1--|
G|-------2-----------2-----------0-----------0-----------0-----------0-------------2-----------2--------|
D|--0h3-----3-----3-----3-----------------------------------------------------0h2-----2-----2-----2-----|
A|----------------------------3-----3-----3-----3-----3-----3-----2-----2-------------------------------|
E|------------------------------------------------------------------------------------------------------|


[Stav 6]

                "Det ved du..."
    F
E|----------------------------------------|
B|-------------1-----------1-----------1--|
G|-------2-----------2-----------2--------|
D|--0h3-----3-----3-----3-----3-----3-----|
A|----------------------------------------|
E|----------------------------------------|


[Stav 7]

        "Pianomand..."
        C
E|-----0---------------------------------------------|
B|-----------------3-----1-----------1-----------1---|
G|-----------0-----------------0-----------0---------|
D|---------------------------------------------------|
A|--3-----3-----3-----3-----3-----3-----3-----3------|
E|---------------------------------------------------|

Resten af sangen er gentagelser.


C        F            C
Stille blues i mol og maj
C    Em                                
Pianomand ka' du høre mig
F                C        C  Em Am                       
Hvordan står det til i de dødes land
F
Det ved du nu
     C                     
pianomand

C                F                  C
Er der koldt og mørkt i den sorte grav
C             Em                  
eller stråler himlen som det klareste rav
       F       C          C  Em Am    
er der sang og musik i de dødes land
   F
og swinger det
     C                         
pianomand


Fløjtevers spilles ligesom normalt vers

C          F                C   
Er der fuglesang og bægerklang
C              Em 
Er der fest og farver hele natten lang
       F        C            C  Em Am
Er der sol over Gudhjem i de dødes land
      F                
Eller dybt godnat
     C
Pianomand
        F         C            C  Em Am
Er der sol over Gudhjem i de dødes land 
F
Det ved du nu
     C
pianomand


************************************

| h  Hammer-on

************************************

            
            
Suggest correction
Creating personal tab
Creating personal tab
You can edit any tab online and save it as your Personal.

You can edit, replace or remove any tab part or add personal notes – all changes will be seen only by you.

Personal tabs can be accessed anytime from any device, even offline.
Learn more »
comments
print report bad tab
guest
You may want to rate the tab now too:
select rating
Wanna post a correction for this tab? Suggest correction