Oops, an error
Loading. Please wait.

Baby I Need You chords

5,641 views 15 this week
1 commentread comment
1 2 3 4 5
1 last vote to show rating
add to favorites
×
Save as Personal and add changes to this tab that will be seen only by you. Learn more ›
×
You can save this tab as Personal to edit and correct it or add notes. All changes will be seen only by you. Learn more »
launch autoscroll
font size
0
reset
transpose
0
reset
display chords
guitar tuner
edit
Autoscroll
slow
fast
+/-
esc
set tempo
stop
Author
Difficulty
Strumming
There is no strumming pattern for this song yet. and get +5 IQ
This is my first tab so go easy on me. This song is really actually very simple. 
Just pick the chords softly and use the same pattern for all three verses.

Tuning: Standard EADGBe
No Capo Needed

[C]Maybe I need you
[F]Here in this hotel room
[C]Thinking about angels
[F]Thinking about what they do
[Am]Maybe they'll fly
[F]Bring you right here to me
[C]Cover them miles
[F]Heaven knows what I need
[F]Baby I need you

*Same chord pattern as above for the next two verses

Maybe I need you
Here in this town so sweet
Everything quiet
Everyone gone to sleep
Thinking about Elvis
How he made mama cry
Elvis find Jesus
Making her feel alright
Baby I need you

Maybe I need you
Here in this world on fire
Everything moving
Everyone always tired
Thinking of futures
Everything falls away
Everything changes
Nothing has changed today
Baby I need you

            
            
Suggest correction
Creating personal tab
Creating personal tab
You can edit any tab online and save it as your Personal.

You can edit, replace or remove any tab part or add personal notes – all changes will be seen only by you.

Personal tabs can be accessed anytime from any device, even offline.
Learn more »
Give kudos to tab author, rate the tab!
1 2 3 4 5
comments
print report bad tab
1 comment total.
0 reply
derroville 10 Dec 07, 2010 05:05 AM

C-chord
E-------------------------------------
A-----3------------------------------
D-------------2--------------2------
G--------------------0---------------
B-------------------------------------
e-------------------------------------

F or Fmaj7
E-------------------------------
A------------------------------
D-----3-----------------------
G---------2-----------2-------
B----------------1--------------
e--------------------------------

E--------------------------------
A----0---------------------------
D--------2-------2----------------
G-------------2------------------
B--------------------------------
e--------------------------------
This is the picking I figured for the song. Its my first written
tab.You'll find that you don't need to hold some strings. The chords
sound right to me. Thanks.
Pick each chord 4 times.

guest
You may want to rate the tab now too:
select rating
Wanna post a correction for this tab? Suggest correction