Oops, an error
Loading. Please wait.

I Have Found tab

3,089 views 1 this week
1 commentread comment
1 2 3 4 5
3 more votes to show rating
add to favorites
×
Save as Personal and add changes to this tab that will be seen only by you. Learn more ›
×
You can save this tab as Personal to edit and correct it or add notes. All changes will be seen only by you. Learn more »
launch autoscroll
font size
0
reset
how to read this tab
guitar tuner
edit
Autoscroll
slow
fast
+/-
esc
set tempo
stop
Email:dirtbikr_88@hotmail.com
Key:C (I think)

The amount to play notes is not given.
Just listen to the song and work out the rhythm with some parts.

Intro:C,E,G,D(palm mute entire time)
e|-------------------------------------------------------------------------|
B|-------------------0-----------------------------------------------------|
G|----------0--------0--------2--------------------------------------------|
D|--2-------2-----------------0--------------------------------------------|
A|--3----------------------------------------------------------------------|
E|-------------------------------------------------------------------------|

Refereded to as (1):
  Slide in between notes
e|-------------------------------------------------------------------------|
B|-------------------------------------------------------------------------|
G|--------9----7----4---------9----7----4----7-----------------------------|
D|-------------------------------------------------------------------------|
A|-------------------------------------------------------------------------|
E|-------------------------------------------------------------------------|

Verse:same as intro

(1)

Verse

Chorus:C,D,E
just play power chords

(1)

Verse

Chorus

Bridge:C,G,E,C,G,E
play around 5x during the: only you fill.....

Chorusx2 maybe just listen

Bridge:can play somthing like this insted of chords again
e|-------------------------------------------------------------------------|
B|-------------------------------------------------------------------------|
G|----7----9-----7------4--------------------------------------------------|
D|-------------------------------------------------------------------------|
A|-------------------------------------------------------------------------|
E|-------------------------------------------------------------------------|
Use some Vibrato

Then run through the Chorus a couple times to end.


Suggest correction
Creating personal tab
Creating personal tab
You can edit any tab online and save it as your Personal.

You can edit, replace or remove any tab part or add personal notes – all changes will be seen only by you.

Personal tabs can be accessed anytime from any device, even offline.
Learn more »
Give kudos to tab author, rate the tab!
1 2 3 4 5
comments
print report bad tab
1 comment total.
0 reply
ApostolicMvment 191 Jan 13, 2010 11:18 AM

The G chord is played
e|-----
b|--0--
g|--0--
d|-----
not
b|-----
g|--0--
d|--0--
a|-----

guest
You may want to rate the tab now too:
select rating
Wanna post a correction for this tab? Suggest correction