Oops, an error
Loading. Please wait.

Ai Ni tab

version 3
version 3

Whole song

  • Couldn't find any tabs that looked accurate. This ... Show more
46 views 1 this week
no commentswrite comment
1 2 3 4 5
3 more votes to show rating
add to favorites
×
Save as Personal and add changes to this tab that will be seen only by you. Learn more ›
×
You can save this tab as Personal to edit and correct it or add notes. All changes will be seen only by you. Learn more »
launch autoscroll
font size
0
reset
how to read this tab
guitar tuner
edit
Autoscroll
slow
fast
+/-
esc
set tempo
stop
Author
Difficulty
About this tab version
Couldn't find any tabs that looked accurate. This one was pieced together from acoustic versions form watched on YouTube that sounded great. Was this info helpful? Yes No
[Intro]
  Asus2        F#m7ad       D             E
e|-------0----|------------|-------2----|--------0----|
B|-------0----|-------0----|-------3----|--------0----|
G|----2-------|-------2----|----2-------|-------------|
D|------------|----2-------|-0--------0-|----4/6------|
A|-0--------0-|------------|------------|-------------|
E|------------|-2--------2-|------------|-0---------0-| .x2


[Verse 1]
  Asus2        F#m7sus4     D            Dm .          Asus2        F#m7sus4     D            E
e|-------0----|------------|-------2----|-1-----0----|-------0----|------------|-------2----|---------0---|
B|-------0----|-------0----|-------3----|-3--------3-|-------0----|-------0----|-------3----|---------0---|
G|----2-------|-------2----|----2-------|----2-------|----2-------|-------2----|----2-------|-------------|
D|------------|----2-------|-0--------0-|------------|------------|----2-------|-0--------0-|----4/6------|
A|-0--------0-|------------|------------|------------|-0--------0-|------------|------------|-------------|
E|------------|-2--------2-|------------|-0----------|------------|-2--------2-|------------|-0---------0-| x2

         
e|---------------------|
B|-------0-----0-------|
G|-------6-----6-------|
D|----7----------------|
A|-0--------0-----0----|
E|-------------------4-|

[Chorus]
  F#m          D            A            E
e|-------2----|-------2----|-------0----|---------0-|
B|-------2----|-------3----|-------2----|---------0-|
G|----2-------|----2-------|----2-------|-----------|
D|-4--------4-|-0--------0-|------------|----4/6----|
A|------------|------------|-0--------0-|-----------|
E|------------|------------|------------|-0---------| x3

  Bm7          C#m7         D            E
e|-------2----|-------4----|-------2----|--~------|
B|-------3----|-------5----|-------3----|--~------|
G|----2-------|----4-------|----2-------|-1~------|
D|------------|------------|-0--------0-|-2~------|
A|-2--------2-|-4--------4-|------------|-2~------|
E|------------|------------|------------|---------|

[Instrumental]
  Asus2        F#m7sus4     D            E             Asus2 .      F#m7sus4 .   D
e|-------0----|------------|-------2----|---------0---|-------0----|------------|-------|
B|-------0----|-------0----|-------3----|---------0---|-------0----|-------0----|-------|
G|----2-------|-------2----|----2-------|-------------|----2-------|-------2----|----2--|
D|------------|----2-------|-0--------0-|----4/6------|------------|----2-------|-0-----|
A|-0--------0-|------------|------------|-------------|-0--------0-|------------|-------|
E|------------|-2--------2-|------------|-0---------0-|------------|-2--------2-|-------| 


[Strum Pattern: Down      Down  Down   Up  ] 
[                1    2    3     4    and  ]

D E

[Verse 2]
A           F#m7        D         Dm
You shi mei sheng qi gu yi nao pi qi
A                   F#m7       D         E
Ni de jin zhang zai yi rang wo jue de an xin
A              F#m7       D                D/E
Cong ni mou ge jiao du wo zong kan jian zi ji

(No ghost strum on last two chords)
A              F#m7      D                  E .   A     E
Dao di ni dong wo huo qi shi wo ben lai jiu xiang ni

[Chorus]
             F#m7        D             A          E x3
Jiu zhe yang ai ni ai ni ai ni sui shi dou yao yi qi
             F#m7        D             A          E x3
Wo xi huan ai ni wai tao wei dao hai you ni de huai li
             F#m7        D             A          E x3
Ba wo men yi fu niu kou hu kou na jiu bu yong fen li
    Bm7    C#m7    D               E               Asus2 (down down down then regular strum)
Mei hao ai qing wo jiu ai zhe yang tie jin yin wei ni

[Bridge]
[Strum Pattern: down down down   up   down}
[                1    2    3    and    4  ]

      D                A          D              A 
Xiang bian cheng ni de yan qi liu jin ni shen ti li
Bm7  C#m7 Em7  D
                    A           D    
Hao hao kan kan zai ni xin li Woah
                            E (1 Strum)
Ni you duo mo bao bei wo ai ni

[Instrumental]
  F#m          D            A            E
e|-------2----|-------2----|-------0----|---------0-|
B|-------2----|-------3----|-------2----|---------0-|
G|----2-------|----2-------|----2-------|-----------|
D|-4--------4-|-0--------0-|------------|----4/6----|
A|------------|------------|-0--------0-|-----------|
E|------------|------------|------------|-0---------| 

  A
e|----------0~|
B|-------2--0~|
G|----2-------|
D|------------|
A|-0----------|
E|------------|



************************************

| /  Slide up
 
| ~  Vibrato

************************************

            
            
Suggest correction
Creating personal tab
Creating personal tab
You can edit any tab online and save it as your Personal.

You can edit, replace or remove any tab part or add personal notes – all changes will be seen only by you.

Personal tabs can be accessed anytime from any device, even offline.
Learn more »
Give kudos to tab author, rate the tab!
1 2 3 4 5
comments
print report bad tab
guest
You may want to rate the tab now too:
select rating
Wanna post a correction for this tab? Suggest correction