Oops, an error
Loading. Please wait.

Call Me bass

by Kimbra
984 views 1 this week
no commentswrite comment
1 2 3 4 5
1 last vote to show rating
add to favorites
×
Save as Personal and add changes to this tab that will be seen only by you. Learn more ›
×
You can save this tab as Personal to edit and correct it or add notes. All changes will be seen only by you. Learn more »
launch autoscroll
font size
0
reset
guitar tuner
edit
Autoscroll
slow
fast
+/-
esc
set tempo
stop
Author
Difficulty
Song:   Call Me
Album:  Vows (2011)
Artist: Kimbra

Tab By: Adam Crowell (Crowella)
E-mail: crowella@gmail.com

Tuning: BEADG

Notes:  S - slap note
        P - pop note
        h - hammer on
        / - slide up
        \ - slide down
        x - dead note

        Listen carefully for the timing and for note durations
        particularly in choruses

Intro (0:00)
                                       S   P
G||-----------------|---------------|------3h5----|------------------|
D||-----------------|---------------|-------------|------------------|
A||---1--1/3--1/3---|3-3-5-5/6---5\-|--x----------|----1-1/5--1/3-1--|
E||3----------------|---------------|3------------|3-3--------------3|
B||-----------------|---------------|-------------|------------------|


Chorus (0:10)
     S P S P    S P   S                   S P   S P   S P   S
G||----3---3h5----3h5--|--------------|-----3-----3h5---3h5--|--------------||
D||--------------------|--------------|----------------------|--------------||
A||--1---3------3-----1|--------------|---1-----3-----x-----1|--------------||x2
E||3-------------------|--------------|----------------------|3-3-1---------||
B||--------------------|1-1-3-4---3---|1---------------------|------4---3---||



Verse (0:30)

G|-----------------|--------------|-----------------|--------------|
D|-----------------|--------------|-----------------|--------------|
A|---1--1h3--3---1-|--------------|-----1-1h3------1|--------------|
E|3----------------|--------------|---3-------------|3-3-1---------|
B|-----------------|1-1-3-4---3---|1----------------|------4---3---|

G|-----------------|--------------|-----------------|--------------|
D|-----------------|--------------|-----------------|--------------|
A|-----1--3--3---1-|--------------|-----1-1h3------1|--------------|
E|3--3-------------|--------------|---3-------------|3-3-1---------|
B|-----------------|1-1-3-4---3---|1----------------|------4---3---|

G|-----------------|--------------|-----------------|--------------|
D|-----------------|--------------|-----------------|--------------|
A|-----1--3--3---1-|--------------|----1--1h3------1|--------------|
E|3--3-------------|--------------|-----------------|3-3-1---------|
B|-----------------|1-1-3-4---3---|-----------------|------4---3---|

G|-----------------|--------------|-----------------|--------------|
D|-----------------|--------------|-----------------|--------------|
A|-----1--3--3---1-|--------------|-----1-1h3------1|--------------|
E|3--3-------------|--------------|---3-------------|3-3-1---------|
B|-----------------|1-1-3-4---3---|1----------------|------4-------|



Chorus 2 (1:10)
     S P S P    S P   S                   S P   S P   S P   S
G||----3---3h5----3h5--|--------------|-----3-----3h5---3h5--|--------------||
D||--------------------|--------------|----------------------|--------------||
A||--1---3------3-----1|--------------|---1-----3-----x-----1|--------------||x2
E||3-------------------|--------------|----------------------|3-3-1---------||
B||--------------------|1-1-3-4---3---|1---------------------|------4---3---||



Verse 2 (1:30)
                                         S P   S P   S P   S
G|--------------------|--------------|-----3-----3h5---3h5--|--------------|
D|--------------------|--------------|----------------------|--------------|
A|--------------------|--------------|---1-----3-----x-----1|--------------|
E|--------------------|--------------|----------------------|3-3-1---------|
B|--------------------|------4---3---|1---------------------|------4---3---|
    S P S P    S P   S                   S P   S P   S P   S
G|----3---3h5----3h5--|--------------|-----3-----3h5---3h5--|--------------|
D|--------------------|--------------|----------------------|--------------|
A|--1---3------3-----1|--------------|---1-----3-----x-----1|--------------|
E|3-------------------|--------------|----------------------|3-3-1---------|
B|--------------------|1-1-3-4---3---|1---------------------|------4---3---|
    S P S P    S P   S                   S P   S P   S P   S
G|----3---3h5----3h5--|--------------|-----3-----3h5---3h5--|--------------|
D|--------------------|--------------|----------------------|--------------|
A|--1---3------3-----1|--------------|---1-----3-----x-----1|--------------|
E|3-------------------|--------------|----------------------|3-3-1---------|
B|--------------------|1-1-3-4-------|1---------------------|------4---3---|

G|----------------|----------------|----------------|----------------|
D|----------------|----------------|----------------|----------------|
A|----------------|----------------|----------------|----------------|
E|----------------|----------------|----------------|----------------|
B|----------------|----------------|----------------|----------------|



Chorus 3 (2:10)
     S P S P    S P   S                   S P   S P   S P   S
G||----3---3h5----3h5--|--------------|-----3-----3h5---3h5--|--------------||
D||--------------------|--------------|----------------------|--------------||
A||--1---3------3-----1|--------------|---1-----3-----x-----1|--------------||x2
E||3-------------------|--------------|----------------------|3-3-1---------||
B||--------------------|1-1-3-4---3---|1---------------------|------4---3---||



Bridge (2:31)

G||------------------|-----------------||
D||------------------|-----------------||
A||------1---1/5-----|--1-1/5---1/3-1--||x5
E||---3--------------|3---------------3||
B||4-----------------|-----------------||

G|------------------|-----------------|
D|------------------|-----------------|
A|------1---1/5-----|--1-1/5----------|
E|---3--------------|3----------------|
B|4-----------------|-----------------|



Chorus 4 (3:01)
     S P S P    S P   S                   S P   S P   S P   S
G||----3---3h5----3h5--|--------------|-----3-----3h5---3h5--|--------------||
D||--------------------|--------------|----------------------|--------------||
A||--1---3------3-----1|--------------|---1-----3-----x-----1|--------------||x8 (fades out)
E||3-------------------|--------------|----------------------|3-3-1---------||
B||--------------------|1-1-3-4---3---|1---------------------|------4---3---||



Thank you for checking out my very first tab. Please comment if any corrections 
are needed and enjoy!

            
            
Suggest correction
Creating personal tab
Creating personal tab
You can edit any tab online and save it as your Personal.

You can edit, replace or remove any tab part or add personal notes – all changes will be seen only by you.

Personal tabs can be accessed anytime from any device, even offline.
Learn more »
Give kudos to tab author, rate the tab!
1 2 3 4 5
comments
print report bad tab
guest
You may want to rate the tab now too:
select rating
Wanna post a correction for this tab? Suggest correction