Oops, an error
Loading. Please wait.

Somebody Please Tab

1,217 views 6 this week
no commentswrite comment
1 2 3 4 5
please rate
add to favorites
launch autoscroll
font size
0
reset
how to read this tab
guitar tuner
Autoscroll
slow
fast
+/-
esc
set tempo
stop
Help us to improve Ultimate-Guitar.com Take our survey!
×
Contributor
:WARNING:
this is MY interpretation of this song.
based on a live version>>>http://www.youtube.com/watch?v=NeAv0phxxlg
if you want to complain about how inaccurate it is, don't bother.
it's MY interpretation.
AND IT'S ALSO FINISHED!!!!
________________________________________
Key:
/ OR \ = slide
   ~   = vibrato
________________________________________

intro

e|---------------------------------------------------------------|
B|----4~--------4-------------------------4----------------------|
G|--------------4------------7------------4------------7---------|
D|--------------4------------7------------4------------7---------|
A|-------------------2---6---------------------2---6-------------|
E|----------4---------------------3---4--------------------------|

e|---------------------------------------------------------------|
B|----3/4---4-------------------------4--------------------------|
G|----3/4---4------------7------------4--------------------------|
D|----3/4---4------------7------------4--------------------------|
A|---------------2---6---------------------2---6~----------------|
E|----3/4---------------------3---4------------------------------|

verse

e|---------------------------------------------------------------|
B|--------4-------------------------4----------------------------|
G|--------4------------7------------4------------7---------------|
D|--------4------------7------------4------------7---------------|
A|-------------2---6---------------------2---6-------------------|
E|----4---------------------3---4--------------------------------|
      some    body  please....    take  me home....

e|---------------------------------------------------------------|
B|--------------4-------------------------4----------------------|
G|--------------4------------7------------4----------------------|
D|--------------4------------7------------4----------------------|
A|-------------------2---6---------------------2---6~------------|
E|------3---4---------------------3---4--------------------------|
   there's children  igniting like sweet cherry bombs...

e|---------------------------------------------------------------|
B|--------4-----------4-----------4-----------4------------------|
G|--------4-----------4-----------4-----------4------------------|
D|--------4-----------4-----------4-----------4------------------|
A|----4-------4---------------4-------4--------------------------|
E|----------------3-------3---------------3----------------------|
   black top  lagoons   lie safe in  cocoons...

e|---------------------------------------------------------------|
B|------------4-----------4-------6~-----------------------------|
G|------------4-----------4-------6~-----------------------------|
D|------------4-----------4-------5~-----------------------------|
A|--------4-------4---------------6~-----------------------------|
E|----3--------------3-------3-----------------------------------|
        sweet serenades       across...    my.....    room....

interlude

e|---------------------------------------------------------------|
B|--------4-------------------------4----------------------------|
G|--------4------------7------------4------------7---------------|
D|--------4------------7------------4------------7---------------|
A|-------------2---6---------------------2---6-------------------|
E|----4---------------------3---4--------------------------------|
  ...

e|---------------------------------------------------------------|
B|----3/4---4-------------------------4--------------------------|
G|----3/4---4------------7------------4--------------------------|
D|----3/4---4------------7------------4--------------------------|
A|---------------2---6---------------------2---6~----------------|
E|----3/4---------------------3---4------------------------------|
    mmm... hm  hmm mm  hmm   hmm mm  mmm  hmm mm....

verse

e|---------------------------------------------------------------|
B|--------4-------------------------4----------------------------|
G|--------4------------7------------4------------7---------------|
D|--------4------------7------------4------------7---------------|
A|-------------2---6---------------------2---6-------------------|
E|----4---------------------3---4--------------------------------|
      some    body  please....    hear  this song...

e|---------------------------------------------------------------|
B|---------------4--------------------------------4--------------|
G|---------------4---------------7----------------4--------------|
D|---------------4---------------7----------------4--------------|
A|---------------------2----6---------------------------2----6~--|
E|----3----4---------------------------3----4--------------------|
        squeeze time  and night by     a plastic bombshell bomb

e|---------------------------------------------------------------|
B|--------4-----------4-----------4-----------4------------------|
G|--------4-----------4-----------4-----------4------------------|
D|--------4-----------4-----------4-----------4------------------|
A|----4-------4---------------4-------4--------------------------|
E|----------------3-------3---------------3----------------------|
    let it   be soon    this impending   doom...

e|---------------------------------------------------------------|
B|---------------4----------------4----------6~--------------6-6-|
G|---------------4----------------4----------6~--------------6-6-|
D|---------------4----------------4----------5~--------------5-5-|
A|---------4-----------4---------------------6~--------------6-6-|
E|----3---------------------3----------3-------------------------|
           razor blanket betty  parade    schedule for noon...

break

e|----4-4-4-4-4-4-4-4-4-4-4--------------------------------------|
B|----5-5-5-5-5-5-5-5-5-5-5--------4-4-4-4-4-4-4-4-4-4-4---------|
G|----6-6-6-6-6-6-6-6-6-6-6--------6-6-6-6-6-6-6-6-6-6-6---------|
D|----6-6-6-6-6-6-6-6-6-6-6--------5-5-5-5-5-5-5-5-5-5-5---------|
A|----4-4-4-4-4-4-4-4-4-4-4--------6-6-6-6-6-6-6-6-6-6-6---------|
E|---------------------------------4-4-4-4-4-4-4-4-4-4-4---------|

e|----4-4-4-4-4-4-4-4-4-4-4--------6-6-6-6-6-6-6-6-6-6-6---------|
B|----5-5-5-5-5-5-5-5-5-5-5--------8-8-8-8-8-8-8-8-8-8-8---------|
G|----6-6-6-6-6-6-6-6-6-6-6--------8-8-8-8-8-8-8-8-8-8-8---------|
D|----6-6-6-6-6-6-6-6-6-6-6--------8-8-8-8-8-8-8-8-8-8-8---------|
A|----4-4-4-4-4-4-4-4-4-4-4--------6-6-6-6-6-6-6-6-6-6-6---------|
E|---------------------------------------------------------------|

bridge 

e|----4-4-4-4-4-4-4-4-4-4-4--------------------------------------|
B|----5-5-5-5-5-5-5-5-5-5-5--------4-4-4-4-4-4-4-4-4-4-4---------|
G|----6-6-6-6-6-6-6-6-6-6-6--------6-6-6-6-6-6-6-6-6-6-6---------|
D|----6-6-6-6-6-6-6-6-6-6-6--------5-5-5-5-5-5-5-5-5-5-5---------|
A|----4-4-4-4-4-4-4-4-4-4-4--------6-6-6-6-6-6-6-6-6-6-6---------|
E|---------------------------------4-4-4-4-4-4-4-4-4-4-4---------|
      oh.. this song is...        drifting away....

e|----4-4-4-4-4-4-4-4-4-4-4--------6-6-6-6-6-6-6-6-6-6-6---------|
B|----5-5-5-5-5-5-5-5-5-5-5--------8-8-8-8-8-8-8-8-8-8-8---------|
G|----6-6-6-6-6-6-6-6-6-6-6--------8-8-8-8-8-8-8-8-8-8-8---------|
D|----6-6-6-6-6-6-6-6-6-6-6--------8-8-8-8-8-8-8-8-8-8-8---------|
A|----4-4-4-4-4-4-4-4-4-4-4--------6-6-6-6-6-6-6-6-6-6-6---------|
E|---------------------------------------------------------------|
  burns up your eyes melts your   face like sea spray...


e|----4-4-4-4-4-4-4-4-4-4-4--------------------------------------|
B|----5-5-5-5-5-5-5-5-5-5-5--------4-4-4-4-4-4-4-4-4-4-4---------|
G|----6-6-6-6-6-6-6-6-6-6-6--------6-6-6-6-6-6-6-6-6-6-6---------|
D|----6-6-6-6-6-6-6-6-6-6-6--------5-5-5-5-5-5-5-5-5-5-5---------|
A|----4-4-4-4-4-4-4-4-4-4-4--------6-6-6-6-6-6-6-6-6-6-6---------|
E|---------------------------------4-4-4-4-4-4-4-4-4-4-4---------|
   a plagiaristic tendency is   paving the way....

e|----4--4--4--4--4--4-----------6~------------------------------|
B|----5--5--5--5--5--5-----------8~------------------------------|
G|----6--6--6--6--6--6-----------8~------------------------------|
D|----6--6--6--6--6--6-----------8~------------------------------|
A|----4--4--4--4--4--4-----------6~------------------------------|
E|---------------------------------------------------------------|
    oooohh  oooooohh            ooh...

outro

e|---------------------------------------------------------------|
B|--------4-------------------------4----------------------------|
G|--------4------------7------------4------------7---------------|
D|--------4------------7------------4------------7---------------|
A|-------------2---6---------------------2---6-------------------|
E|----4---------------------3---4--------------------------------|
  ...

e|---------------------------------------------------------------|
B|----3/4---4-------------------------4--------------------------|
G|----3/4---4------------7------------4--------------------------|
D|----3/4---4------------7------------4-------------5~--6~-------|
A|---------------2---6---------------------2---6~----------------|
E|----3/4---------------------3---4---------------------------4--|

done and dusted!
comments are welcome.
comments
We did not receive enough feedback on this tab! Please rate:
print report bad tab
1 2 3 4 5
I want to post or [tab]
guest
You may want to rate the tab now too:
select rating
Please do not post tabs as comments. Select "correction" instead!