Oops, an error
Loading. Please wait.

All My Life ukulele

322 views 27 this week
no commentswrite comment
1 2 3 4 5
3 more votes to show rating
add to favorites
×
Save as Personal and add changes to this tab that will be seen only by you. Learn more ›
×
You can save this tab as Personal to edit and correct it or add notes. All changes will be seen only by you. Learn more »
launch autoscroll
font size
0
reset
transpose
0
reset
display chords
guitar tuner
edit
Autoscroll
slow
fast
+/-
esc
set tempo
stop
About this tab version
This is Kina Grannis' beautiful ukulele cover of KC and JoJo's "All My Life". She finger picks the song so this is a tab instead of chords. I will add in the strum patterns for if you can't finger-pick and sing at the same time like me. Was this info helpful? Yes No
Strumming Are these strumming patterns correct? Yes No
Verse 100 bpm
1
&
2
&
3
&
4
&
5
&
6
&
7
&
8
&
Listen
Intro/Chorus 100 bpm
1
&
2
&
3
&
4
&
Listen
[Intro]

    Em      D         A                 D                G               
G|--------2-------0-|-------0---------|-------0--------|------2---------|
C|--3-------2-------|-0---------0-----|-2---------2----|-3--------3-----|
E|----4-------2-----|---1---------1---|---2------------|---2--------2---|
A|------0-------2---|-2---2-----------|-2---2----------|-0---0----------|


    Em      D         A                 D                 G
G|--------2-------0-|-------0---------|-------0--------|--2--|
C|--3-------2-------|-0---------1-----|-2---------2----|--3--|
E|----4-------2-----|---1---------2---|---2------------|--2--|
A|------0-------2---|-2---2-----------|-2---2----------|--0--|



[Verse]

    D                Bm               G                 A
G|-------0---------|------2---------|------2----------|------0----------|
C|--2--------2-----|-2--------2-----|-3---------3-----|-0--------0------|
E|----2--------2---|---2--------2---|---2---------2---|---1--------1----|
A|--2---2----------|-4---4----------|-0---0-----------|-2---2-----------|


    D                Bm               G                 A
G|-------0---------|------2---------|------2----------|------0----------|
C|--2--------2-----|-2--------2-----|-3---------3-----|-0--------0------|
E|----2--------2---|---2--------2---|---2---------2---|---1--------1----|
A|--2---2----------|-4---4----------|-0---0-----------|-2---2-----------|

    D                Bm               G                 A
G|-------0---------|------2---------|------2----------|------0----------|
C|--2--------2-----|-2--------2-----|-3---------3-----|-0--------0------|
E|----2--------2---|---2--------2---|---2---------2---|---1--------1----|
A|--2---2----------|-4---4----------|-0---0-----------|-2---2-----------|


    D                Bm               G                 A
G|-------0---------|------2---------|------2----------|--0--|
C|--2--------2-----|-2--------2-----|-3---------3-----|--0--|
E|----2--------2---|---2--------2---|---2---------2---|--1--|
A|--2---2----------|-4---4----------|-0---0-----------|--2--|




[Chorus]

    Em      D         A                 D                Bm
G|--------2-------0-|-------0---------|------0---------|-------2---------|
C|--3-------2-------|-0---------0-----|-2--------2-----|-2---------2-----|
E|----4-------2-----|---1---------1---|---2--------2---|---2---------2---|
A|------0-------2---|-2---2-----------|-2---2----------|-4---4-----------|


    Em      D         A                 D                Bm
G|--------2-------0-|-------0---------|------0---------|-------2---------|
C|--3-------2-------|-0---------0-----|-2--------2-----|-2---------2-----|
E|----4-------2-----|---1---------1---|---2--------2---|---2---------2---|
A|------0-------2---|-2---2-----------|-2---2----------|-4---4-----------|


    Em      D         A                 A                Bm
G|--------2-------0-|-------0---------|------5---------|-------2---------|
C|--3-------2-------|-0---------0-----|-0--------0-----|-2---------2-----|
E|----4-------2-----|---1---------1---|---1--------1---|---2---------2---|
A|------0-------2---|-2---2-----------|-2---2----------|-4---4-----------|

    G                 A                 D                Bm                 G     A
G|--------2---------|-------0---------|------0-------0-|-------2---------|--2--|--0--|
C|--3---------3-----|-0---------0-----|-2-------0------|-2---------2-----|--3--|--0--|
E|----2---------2---|---1---------1---|---2-------1----|---2---------2---|--2--|--1--|
A|--0---0-----------|-2---2-----------|-----2-------2--|-4---4-----------|--0--|--2--|



[Outro]

    Em      D         A                 D                Bm
G|--------2-------0-|-------0---------|------0---------|-------2---------|
C|--3-------2-------|-0---------0-----|-2--------2-----|-2---------2-----|
E|----4-------2-----|---1---------1---|---2--------2---|---2---------2---|
A|------0-------2---|-2---2-----------|-2---2----------|-4---4-----------|


    Em      D         A                 D                Bm
G|--------2-------0-|-------0---------|------0---------|-------2---------|
C|--3-------2-------|-0---------0-----|-2--------2-----|-2---------2-----|
E|----4-------2-----|---1---------1---|---2--------2---|---2---------2---|
A|------0-------2---|-2---2-----------|-2---2----------|-4---4-----------|


    Em      D         A                 D                Bm
G|--------2-------0-|-------0---------|------5---------|-------2---------|
C|--3-------2-------|-0---------0-----|-0--------0-----|-2---------2-----|
E|----4-------2-----|---1---------1---|---1--------1---|---2---------2---|
A|------0-------2---|-2---2-----------|-2---2----------|-4---4-----------|

    D                 A                 G                Bm                 G     A     D
G|--------2---------|-------0---------|------0-------0-|-------2---------|--2--|--0--|--0--|
C|--3---------3-----|-0---------0-----|-2-------0------|-2---------2-----|--3--|--0--|--2--|
E|----2---------2---|---1---------1---|---2-------1----|---2---------2---|--2--|--1--|--2--|
A|--0---0-----------|-2---2-----------|-----2-------2--|-4---4-----------|--0--|--2--|--2--|



[Intro]

[Verse]

I will never find another lover sweeter than you,
Sweeter than you
And I will never find another lover more precious than you
More precious than you
You are close to me you're like my mother,
Close to me you're like my father,
Close to me you're like my sister,
Close to me you're like my brother
You are the only one my everything and for you this song I sing

[Chorus]

And all my life I've prayed for someone like you
And I thank God that I, that I finally found you
All my life I've prayed for someone like you
And I hope that you feel the same way too
Yes, I pray that you do love me too

You're all that I'm thinking of...

[Verse]

Said, I promise to never fall in love with a stranger,
You're all I'm thinking of, I praise the Lord above,
For sending me your love, I cherish every hug,
I really love you

[Outro]

And all my life, I've prayed for someone like you,
And I thank God that I, that I finally found you, baby
All my life I've prayed for someone like you
And I hope that you feel the same way too
Yes, I pray that you do, love me



************************************

            
            
Suggest correction
Creating personal tab
Creating personal tab
You can edit any tab online and save it as your Personal.

You can edit, replace or remove any tab part or add personal notes – all changes will be seen only by you.

Personal tabs can be accessed anytime from any device, even offline.
Learn more »
Give kudos to tab author, rate the tab!
1 2 3 4 5
comments
print report bad tab
guest
You may want to rate the tab now too:
select rating
Wanna post a correction for this tab? Suggest correction