Oops, an error
Loading. Please wait.

I Knew This Would Be Love tab

703 views 3 this week
no commentswrite comment
1 2 3 4 5
3 more votes to show rating
add to favorites
×
Save as Personal and add changes to this tab that will be seen only by you. Learn more ›
×
You can save this tab as Personal to edit and correct it or add notes. All changes will be seen only by you. Learn more »
launch autoscroll
font size
0
reset
how to read this tab
guitar tuner
edit
Autoscroll
slow
fast
+/-
esc
set tempo
stop
-------------------------------------------------------------------------------
                           I Knew This Would be Love - Kina Grannis
-------------------------------------------------------------------------------
Tabbed by:joyayang0113
E-mail:

Tuning:I play it standard with capo on the 6th fret but I think it's a different tuning 
with the capo on the 7th fret. The tabs still work either way. If you know what tuning it 
is, please share.

Intro:
e|---------------------------------------------------------------------------|
B|---------------------------------------------------------------------------|
G|---0---------0------------0----------0-------------------------------------|
D|-----2---0-2---2------------2---0-2-----2----------------------------------|
A|---------------------------------------------------------------------------|
E|-1-----1----------------1-----1--------------------------------------------|

e|---------------------------------------------------------------------------|
B|---------------------------------------------------------------------------|
G|---0----------0-----------0------------0-----------------------------------|
D|-----2----0-2-----2---------2-----0-2------2-------------------------------|
A|-3-----3----------------3------3-------------------------------------------|
E|---------------------------------------------------------------------------|

Verse:
e|---------------------------------------------------------------------------|
B|---------------------------------------------------------------------------|
G|--0-----0------0--------0------0-----0-------------------------------------|
D|----2-----2---------------2------2-----------------------------------------|
A|---------------------------------------------------------------------------|
E|-1----1------1-------1------1------1---------------------------------------|   \
                                                                                  3x 
e|---------------------------------------------------------------------------|   /
B|---------------------------------------------------------------------------|
G|---0----------0-----------0------------0-----------------------------------|
D|-----2----0-2-----2---------2-----0-2------2-------------------------------|
A|-3-----3----------------3------3-------------------------------------------|
E|---------------------------------------------------------------------------|

*I knew my heart was yours from the first day*
e|---------------------------------------------------------------------------|
B|---------------------------------------------------------------------------|
G|--0-----0------0--------0------0-----0-------------------------------------|
D|----2-----2---------------2------2-----------------------------------------|
A|---------------------------------------------------------------------------|
E|-1----1------1-------3------3------3---------------------------------------| 

e|---------------------------------------------------------------------------|
B|---------------------------------------------------------------------------|
G|---0----------0-----------0------------0-----------------------------------|
D|-----2----0-2-----2---------2-----0-2------2-------------------------------|
A|-3-----3----------------3------3-------------------------------------------|
E|---------------------------------------------------------------------------|

(Chorus)
e|---------------------------------------------------------------------------|
B|---------------------------------------------------------------------------|
G|---2-------2-----2------0-----0-----0--------------------------------------|
D|------3------3------------2-----2------------------------------------------|
A|---------------------------------------------------------------------------|
E|-1-------1-----1------3-----3-----3----------------------------------------|\
                                                                               2x
e|---------------------------------------------------------------------------|/
B|---------------------------------------------------------------------------|
G|---0----------0-----------0------------0-----------------------------------|
D|-----2----0-2-----2---------2-----0-2------2-------------------------------|
A|-3-----3----------------3------3-------------------------------------------|
E|---------------------------------------------------------------------------|

*What we found                 Second to...    
e|---------------------------------------------------------------------------|
B|---------------------------------------------------------------------------|
G|---2-------2-----2------0-----0-----0--------------------------------------|
D|------3------3------------2-----2------------------------------------------|
A|---------------------------------------------------------------------------|
E|-1-------1-----1------3-----3-----3----------------------------------------|

...None*
e|---------------------------------------------------------------------------|
B|---------------------------------------------------------------------------|
G|---2----------2-----------2------------2-----------------------------------|
D|-----2----0-2-----2---------2-----0-2------2-------------------------------|
A|-3-----3----------------3------3-------------------------------------------|
E|---------------------------------------------------------------------------|

*I knew I knew I knew this would be love...
e|---------------------------------------------------------------------------|
B|---------------------------------------------------------------------------|
G|--0-----0------0--------0------0-----0-------------------------------------|
D|----2-----2---------------2------2-----------------------------------------|
A|---------------------------------------------------------------------------|
E|-1----1------1-------3------3------3---------------------------------------| 

e|---------------------------------------------------------------------------|
B|---------------------------------------------------------------------------|
G|---0----------0-----------0------------0-----------------------------------|
D|-----2----0-2-----2---------2-----0-2------2-------------------------------|
A|-3-----3----------------3------3-------------------------------------------|
E|---------------------------------------------------------------------------|

The tabs repeat again for the second half of the song


Listen to the song and play along
This is what I came up with
Hope it helps

            
            
Suggest correction
Creating personal tab
Creating personal tab
You can edit any tab online and save it as your Personal.

You can edit, replace or remove any tab part or add personal notes – all changes will be seen only by you.

Personal tabs can be accessed anytime from any device, even offline.
Learn more »
Give kudos to tab author, rate the tab!
1 2 3 4 5
comments
print report bad tab
guest
You may want to rate the tab now too:
select rating
Wanna post a correction for this tab? Suggest correction