Oops, an error
Loading. Please wait.

Memory tab

version 1
version 1

Whole song

4,431 views 1 this week
3 commentsread comments
1 2 3 4 5
x 4
add to favorites
×
Save as Personal and add changes to this tab that will be seen only by you. Learn more ›
×
You can save this tab as Personal to edit and correct it or add notes. All changes will be seen only by you. Learn more »
launch autoscroll
font size
0
reset
how to read this tab
guitar tuner
edit
Autoscroll
slow
fast
+/-
esc
set tempo
stop
Author
-------------------------------------------------------------------------
MEMORY – Kina Grannis
-------------------------------------------------------------------------
Tabbed by: Kengus

Standard tuning
Capo on third fret!

This how I hear it, I think I got most of it. At least the intro and the
verse. The chorus I'm not so sure about, but it works. Have fun.

INTRO
  Cmaj7        D6sus4        Em7/D
e|-----------------------------------------------------|
B|-------0-------------0-------------0-----------0-----|
G|-0-------0---0---------0---0---------0---0-------0---|
D|---0-------------0-------------0-----------0---------| continue same
A|-3---3-----3-3/5---5-----5-5/7---7-----7-7---7-----7-| pattern in the
E|-----------------------------------------------------| verse, chords
   Cmaj7       D6sus4        Em7/D         Em9/D         change slightly
e|-----------------------------------------------------|
B|-------0-------------0-------------0-----7-----------| a similar pattern
G|-0-------0---0---------0---0---------0---------------| is also used in
D|---0-------------0-------------0---------------------| the chorus, with
A|-3---3-----3-3/5---5-----5-5/7---7-----7-------------| different chords
E|-----------------------------------------------------|

VERSE1
Cmaj7                    D6sus4
Get beneath the bed it's another attack
            Em7/D
But when the monster turns man, you don't know how to react
  Cmaj7              D6sus4
And daddy named it the singing bridge 
  Em7/D
in memory of the ghosts that lived here
Cmaj7  D6sus4  Em7/D    D6sus4     Cmaj7 D6sus4   Em7/D Em9/D
     My timing could not have been better        she cried

CHORUS x2
Em      D6add4       Cmaj7            Em = xx2003
  And although she's gone         D6add4 = xx0002
D6add4        Em                   Cmaj7 = x32000
Although it’s over
    D6add4    Cmaj7              [after 2nd time straight into intro]
A memory hangs on
      Em
A memory

[repeat intro]

VERSE2 (same as before)
As the dust settles and the smoke is rising
Up about the clouds a dove is crying
I leave a trail of copper faces all around the town in different places
I'd like to think that they'll be happy, or try

CHORUS x2 (same as before)
And although she's gone
Although it’s over
A memory hangs on
A memory

[repeat intro also in the end]

=======================================================================
Comment, rate, appreciate!
Suggest correction
Creating personal tab
Creating personal tab
You can edit any tab online and save it as your Personal.

You can edit, replace or remove any tab part or add personal notes – all changes will be seen only by you.

Personal tabs can be accessed anytime from any device, even offline.
Learn more »
comments
print report bad tab
3 comments total.
0 reply
Alina37 112 Jul 29, 2009 11:41 AM

Cmaj7        D6sus4        Em7/D
e|---------------------------------------------------------|
B|-------0---------------0-------------0------------0------|
G|-0--------0------0-------0------0-------0----0-------0---|
D|---0---------------0--------------0------------0---------|
A|-3---3-----3---3/5---5----5---5/7---7----7---7---7-----7-|
E|---------------------------------------------------------|


You play the G string, not the D string on that one note.

-1 reply
Alina37 112 Jul 29, 2009 01:37 PM

Oops first chord should be like this.

Cmaj7        D6sus4        Em7/D
e|--------------
B|-------0------
G|-0--------0---
D|---2----------
A|-3---3-----3--
E|--------------

0 reply
Parreth 133 Feb 29, 2012 05:00 PM

Alina, you're wrong, Kengus is right.

guest
You may want to rate the tab now too:
select rating
Wanna post a correction for this tab? Suggest correction