Oops, an error
Loading. Please wait.

Message From Your Heart tab

version 3
version 3

Whole song

5,437 views 3 this week
3 commentsread comments
1 2 3 4 5
x 3
add to favorites
×
Save as Personal and add changes to this tab that will be seen only by you. Learn more ›
×
You can save this tab as Personal to edit and correct it or add notes. All changes will be seen only by you. Learn more »
launch autoscroll
font size
0
reset
how to read this tab
guitar tuner
edit
Autoscroll
slow
fast
+/-
esc
set tempo
stop
----------------------------------------------------------------------------
               MESSAGE FROM YOUR HEART - Kina Grannis
----------------------------------------------------------------------------

Hey, so as I've posted before, Kina's new album 'Stairwells' is out, and on this album 
of her old songs have been changed a bit! So the other tabs are for the original version 
the song! Im going to tab the album version! :)

Tuning: Capo 1

Chords Used:
Cmaj7  x35000
Em     022000
D/F#   200230
G      230033


Intro:
   Cmaj7                           Em
e|-----------------------------------------------------------------|
B|-------0-------0-------0-------0-------0-------0-------0-------0-|
G|---0-------0-------0-------0-------0-------0-------0-------0-----|
D|-----5-------5-------5-------5-------2-------2-------2-------2---|
A|-3-------3-------3-------3---------------------------------------|
E|---------------------------------0------0-------0-------0--------|

   Cmaj7                           Em
e|-----------------------------------------------------------------|
B|-------0-------0-------0-------0-------0-------0-------0-------0-|
G|---0-------0-------0-------0-------0-------0-------0-------0-----|
D|-----5-------5-------5-------5-------2-------2-------2-------2---|
A|-3-------3-------3-------3---------------------------------------|
E|---------------------------------0------0-------0-------0--------|

Verse:
   Cmaj7                           Em
e|-----------------------------------------------------------------|
B|-------0-------0-------0-------0-------0-------0-------0-------0-|
G|---0-------0-------0-------0-------0-------0-------0-------0-----|
D|-----5-------5-------5-------5-------2-------2-------2-------2---|
A|-3-------3-------3-------3---------------------------------------|
E|---------------------------------0------0-------0-------0--------|
Don't break me, I bruise easily,

   Cmaj7                           Em
e|-----------------------------------------------------------------|
B|-------0-------0-------0-------0-------0-------0-------0-------0-|
G|---0-------0-------0-------0-------0-------0-------0-------0-----|
D|-----5-------5-------5-------5-------2-------2-------2-------2---|
A|-3-------3-------3-------3---------------------------------------|
E|---------------------------------0------0-------0-------0--------|
The source of both your love and misery,

   Cmaj7                           Em
e|-----------------------------------------------------------------|
B|-------0-------0-------0-------0-------0-------0-------0-------0-|
G|---0-------0-------0-------0-------0-------0-------0-------0-----|
D|-----5-------5-------5-------5-------2-------2-------2-------2---|
A|-3-------3-------3-------3---------------------------------------|
E|---------------------------------0------0-------0-------0--------|
I am steady, beating endlessly,

   Cmaj7                           Em
e|-----------------------------------------------------------------|
B|-------0-------0-------0-------0-------0-------0-------0-------0-|
G|---0-------0-------0-------0-------0-------0-------0-------0-----|
D|-----5-------5-------5-------5-------2-------2-------2-------2---|
A|-3-------3-------3-------3---------------------------------------|
E|---------------------------------0------0-------0-------0--------|
While you are dozing, dreaming pretty things.


Pre-Chorus:
   Cmaj7                           Em     D/F#    G       D/F#
e|-----------------------------------------------------------------|
B|-------0-------0-------0-------0-------0-------3-------3-------3-|
G|---0-------0-------0-------0-------0-------2-------0-------2-----|
D|-----5-------5-------5-------5-------2-------0-------0-------0---|
A|-3-------3-------3-------3---------------------------------------|
E|---------------------------------0------2-------3-------2--------|
I don't work for free,

   Cmaj7                           D/F#                 (strum!)
e|---------------------------------------------------------0-------|
B|-------0-------0-------0-------0-------3-------3-------3-3-------|
G|---0-------0-------0-------0-------2-------2-------2-----2-------|
D|-----5-------5-------5-------5-------0-------0-------0---0-------|
A|-3-------3-------3-------3-------------------------------0-------|
E|---------------------------------2------2-------2--------2-------|
Please take care of me.

Chorus: (strum these chords!)

G                           D/F#
This is a message from your heart
                       Em
Your most devoted body part
                       D/F#
Taking blood and making art
G                           D/F#
This is a message from your heart
                       Em
Pounding away into the dark
                         D/F#
You could thank me for a start
                            G (hold.)
This is a message from your heart.

(tap on body of guitar along with drum beat, this is how Kina plays it!)


Verse: (strum each chord once, then tap with drum beat!)

Cmaj7                     Em
Don't hurt me, I bleed constantly
    Cmaj7                    Em
My efforts leave me but flow back swiftly
    Cmaj7                    Em
My rhythm, soothing, like raindrops steady
    Cmaj7                      Em
On foggy windows when you gaze outwardly

Pre-Chorus:
   Cmaj7                           Em     D/F#    G       D/F#
e|-----------------------------------------------------------------|
B|-------0-------0-------0-------0-------0-------3-------3-------3-|
G|---0-------0-------0-------0-------0-------2-------0-------2-----|
D|-----5-------5-------5-------5-------2-------0-------0-------0---|
A|-3-------3-------3-------3---------------------------------------|
E|---------------------------------0------2-------3-------2--------|
I don't work for free,

   Cmaj7                           D/F#                 (strum!)
e|---------------------------------------------------------0-------|
B|-------0-------0-------0-------0-------3-------3-------3-3-------|
G|---0-------0-------0-------0-------2-------2-------2-----2-------|
D|-----5-------5-------5-------5-------0-------0-------0---0-------|
A|-3-------3-------3-------3-------------------------------0-------|
E|---------------------------------2------2-------2--------2-------|
Please take care of me.


Chorus:

G                           D/F#
This is a message from your heart
                       Em
Your most devoted body part
                       D/F#
Taking blood and making art
G                           D/F#
This is a message from your heart
                       Em
Pounding away into the dark
                         D/F#
You could thank me for a start
                            G      D/F#
This is a message from your heart.
                            Em     D/F#
This is a message from your heart.

Bridge:
               G (hold)  D/F#(hold) Em(hold) D/F#(hold)
Everytime you sleep, bum bum bum bum....
               G         D/F#       Em       D/F#
Everytime you eat, bum bum bum bum....
               G         D/F#       Em       D/F#
Everytime you laugh, bum bum bum bum....
               G         D/F#       Em       D/F#
Everytime you cry, bum bum bum bum....
               G         D/F#       Em       D/F# (hold.)
Every time you love, bum bum bum bum.... Ohh, oh


                             G(hold.)
This is a message from your heart.

            
            
Suggest correction
Creating personal tab
Creating personal tab
You can edit any tab online and save it as your Personal.

You can edit, replace or remove any tab part or add personal notes – all changes will be seen only by you.

Personal tabs can be accessed anytime from any device, even offline.
Learn more »
Give kudos to tab author, rate the tab!
1 2 3 4 5
comments
print report bad tab
3 comments total.
0 reply
StarsFallForMJ 1,152 Aug 10, 2010 01:51 AM

Sorry for any of you who are used to reading tabs the other way up!...I just tabbed it this way coz a few people said this is how they prefer it!
If you want me to do it the other way too let me know!
Hope it helped! xx

0 reply
StarsFallForMJ 1,152 Aug 10, 2010 01:51 AM

And oops!....I didnt fill out the song/band name thing!! Haha!...I was getting tired that day.... Im stupid!

0 reply
StarsFallForMJ 1,152 Sep 02, 2010 09:09 AM

Infact forget them!....I edited it!

guest
You may want to rate the tab now too:
select rating
Wanna post a correction for this tab? Suggest correction