Oops, an error
Loading. Please wait.

Sorry tab

version 2
version 2

Whole song

932 views 3 this week
no commentswrite comment
1 2 3 4 5
2 more votes to show rating
add to favorites
×
Save as Personal and add changes to this tab that will be seen only by you. Learn more ›
×
You can save this tab as Personal to edit and correct it or add notes. All changes will be seen only by you. Learn more »
launch autoscroll
font size
0
reset
how to read this tab
guitar tuner
edit
Autoscroll
slow
fast
+/-
esc
set tempo
stop
Sorry (Acoustic Version)
Kina Grannis
Tuning: 1/2 step down

[Intro]
e|-----------------------------------------------------------------|
B|----3-------3-------3-------3-------3-------3-------3-------3----|
G|------2-------2-------2-------2-------2-------2-------2-------2--|
D|--0-----0-0-----0-0-----0-0-----0-0-----0-0-----0-0-----0-0------|
A|-----------------------------------------------------------------|
E|-----------------------------------------------------------------|

e|-----------------------------------------------------------------|
B|----3-------3-------3-------3-------3-------3-------3-------3----|
G|------2-------2-------2-------2-------2-------2-------2-------2--|
D|--0----0-------0-------0-------0-------0-------0-------0-------0-| (x2)
A|---------4-------2-------0-------------------------------0-------|
E|---------------------------------3-------2-------3---------------|
  Mmmmm…

[Verse 1]
e|-----------------------------------------------------------------|
B|----3-------3-------3-------3-------3-------3-------3-------3----|
G|------2-------2-------2-------2-------2-------2-------2-------2--|
D|--0----0-------0-------0-------0-------0-------0-------0-------0-|
A|---------4-------2-------0-------------------------------0-------|
E|---------------------------------3-------2-------3---------------|
   Let’s stop pretending, it’s bad enough that we both got scared, both gave up a little

e|-----------------------------------------------------------------|
B|----3-------3-------3-------3-------3-------3-------3-------3----|
G|------2-------2-------2-------2-------2-------2-------2-------2--|
D|--0----0-------0-------0-------0-------0-------0-------0-------0-|
A|---------4-------2-------0-------------------------------0-------|
E|---------------------------------3-------2-------3---------------|
If I know one thing, it’s that there’s too many parts of air that tease and touch between us

[Pre-Chorus 1]
e|-----------------------------------------------------------------|
B|----3-------3-------3-------3-------3-------3-------3-------3----|
G|------2-------2-------2-------2-------2-------2-------2-------2--|
D|-------0-------0-------0-------0-------0-------0-------0-------0-|
A|--2-------2-------2------2-------0-------0-------0-------0-------|
E|-----------------------------------------------------------------|
                  We should be                more than this

e|-----------------------------------------------------------------|
B|----3-------3-------3-------3-------3-------3-------3-------3----|
G|------2-------2-------2-------2-------2-------2-------2-------2--|
D|-------0-------0-------0-------0-------0-------0-------0-------0-|
A|-------------------------------------------------0-------0-------|
E|--3-------3-------3------3-------3-------3-----------------------|

[Chorus]
e|-----------------------------------------------------------------|
B|----3-------3-------3-------3-------3-------3-------3-------3----|
G|------2-------2-------2-------2-------2-------2-------2-------2--|
D|--0----0--0----0-------0-------0-------0-------0-------0-------0-|
A|------------------4-------4-------2-------2----------------------|
E|--------------------------------------------------3-------3------|
  Oh my lover, let’s start over, will we ever say we’re sorry

e|-----------------------------------------------------------------|
B|----3-------3-------3-------3-------3-------3-------3-------3----|
G|------2-------2-------2-------2-------2-------2-------2-------2--|
D|--0----0--0----0-------0-------0-------0-------0-------0-------0-|
A|------------------4-------4-------2-------2----------------------|
E|--------------------------------------------------3-------3------|
 It’s not going to get better, if we never say we’re sorry

[Interlude]
e|-----------------------------------------------------------------|
B|----3-------3-------3-------3-------3-------3-------3-------3----|
G|------2-------2-------2-------2-------2-------2-------2-------2--|
D|--0----0-------0-------0-------0-------0-------0-------0-------0-|
A|---------4-------2-------0-------------------------------0-------|
E|---------------------------------3-------2-------3---------------|

[Verse 2]
e|-----------------------------------------------------------------|
B|----3-------3-------3-------3-------3-------3-------3-------3----|
G|------2-------2-------2-------2-------2-------2-------2-------2--|
D|--0----0-------0-------0-------0-------0-------0-------0-------0-|
A|---------4-------2-------0-------------------------------0-------|
E|---------------------------------3-------2-------3---------------|
What are you needing, somehow it feels you’re a world away, while I just wait here

e|-----------------------------------------------------------------|
B|----3-------3-------3-------3-------3-------3-------3-------3----|
G|------2-------2-------2-------2-------2-------2-------2-------2--|
D|--0----0-------0-------0-------0-------0-------0-------0-------0-|
A|---------4-------2-------0-------------------------------0-------|
E|---------------------------------3-------2-------3---------------|
And I know these are the things, the little moments that bring us closer, if we make it there

e|-----------------------------------------------------------------|
B|----3-------3-------3-------3-------3-------3-------3-------3----|
G|------2-------2-------2-------2-------2-------2-------2-------2--|
D|-------0-------0-------0-------0-------0-------0-------0-------0-|
A|--2-------2-------2------2-------0-------0-------0-------0-------|
E|-----------------------------------------------------------------|
                 Leave your words                Take my hand

e|-----------------------------------------------------------------|
B|----3-------3-------3-------3-------3-------3-------3-------3----|
G|------2-------2-------2-------2-------2-------2-------2-------2--|
D|-------0-------0-------0-------0-------0-------0-------0-------0-|
A|-------------------------------------------------0-------0-------|
E|--3-------3-------3------3-------3-------3-----------------------|

[Chorus]

[Interlude]

[Bridge]
e|-----------------------------------------------------------------|
B|----2-------2-------2-------2-------3-------3-------3-------3----|
G|------2-------2-------2-------2-------2-------2-------2-------2--|
D|-------0-------0-------0-------0-------0-------0-------0-------0-|
A|--0-------0-------0-------0--------------------------------------|
E|----------------------------------3-------3-------3-------3------|
                Can we stop this now      For good, for good

e|-----------------------------------------------------------------|
B|----2-------2-------2-------2-------3-------3-------3-------3----|
G|------2-------2-------2-------2-------2-------2-------2-------2--|
D|-------0-------0-------0-------0-------0-------0-------0-------0-|
A|--0-------0-------0-------0--------------------------------------|
E|----------------------------------3-------3-------3-------3------|
           I will love you anyhow         For good, for good

e|-----------------------------------------------------------------|
B|----2-------2-------2-------2-------3-------3-------3-------3----|
G|------2-------2-------2-------2-------2-------2-------2-------2--|
D|-------0-------0-------0-------0-------0-------0-------0-------0-|
A|--0-------0-------0-------0--------------------------------------|
E|----------------------------------3-------3-------3-------3------|
        So let me take you by the hand    For good, for good

e|-----------------------------------------------------------------|
B|----2-------2-------2-------2-------3-------3-------3-------3----|
G|------2-------2-------2-------2-------2-------2-------2-------2--|
D|-------0-------0-------0-------0-------0-------0-------0-------0-|
A|--0-------0-------0-------0--------------------------------------|
E|----------------------------------3-------3-------3-------3------|
        And if we care we’ll understand

[Chorus 2]
e|-----------------------------------------------------------------|
B|--3---------------3---------------3---------------3--------------|
G|-----------------------------------------------------------------|
D|-----------------------------------------------------------------|
A|--5---------------4---------------2------------------------------|
E|--------------------------------------------------3--------------|
  Oh my lover, let’s start over, will we ever say we’re sorry

e|-----------------------------------------------------------------|
B|----3-------3-------3-------3-------3-------3-------3-------3----|
G|------2-------2-------2-------2-------2-------2-------2-------2--|
D|--0----0--0----0-------0-------0-------0-------0-------0-------0-|
A|------------------4-------4-------2-------2----------------------|
E|--------------------------------------------------3-------3------|
 It’s not going to get better, if we never say we’re sorry

e|-----------------------------------------------------------------|
B|----3-------3-------3-------3-------3-------3-------3-------3----|
G|------2-------2-------2-------2-------2-------2-------2-------2--|
D|--0----0--0----0-------0-------0-------0-------0-------0-------0-|
A|------------------4-------4-------2-------2----------------------|
E|--------------------------------------------------3-------3------|
  Oh my lover, let’s start over, will we ever say we’re sorry

e|-----------------------------------------------------------------|
B|----3-------3-------3-------3-------3-------3-------3-------3----|
G|------2-------2-------2-------2-------2-------2-------2-------2--|
D|--0----0--0----0-------0-------0-------0-------0-------0-------0-|
A|------------------4-------4-------2-------2----------------------|
E|--------------------------------------------------3-------3------|
 It’s not going to get better, if we never say we’re sorry

e|-----------------------------------------------------------------|
B|----3-------3-------3-------3-------3-------3-------3-------3----|
G|------2-------2-------2-------2-------2-------2-------2-------2--|
D|--0----0-------0-------0-------0-------0-------0-------0-------0-|
A|---------4-------2-------0-------------------------------0-------|
E|---------------------------------3-------2-------3---------------|

e|------------------------------------|
B|----3-------3-------3-------3-------|
G|------2-------2-------2-------2-----|
D|--0----0-------0-------0-------0----|
A|---------4-------2-------0----------|
E|---------------------------------3--|
  Mmmmm

            
            
Suggest correction
Creating personal tab
Creating personal tab
You can edit any tab online and save it as your Personal.

You can edit, replace or remove any tab part or add personal notes – all changes will be seen only by you.

Personal tabs can be accessed anytime from any device, even offline.
Learn more »
Give kudos to tab author, rate the tab!
1 2 3 4 5
comments
print report bad tab
guest
You may want to rate the tab now too:
select rating
Wanna post a correction for this tab? Suggest correction