Oops, an error
Loading. Please wait.

When Will I Learn tab

16 views 1 this week
no commentswrite comment
1 2 3 4 5
3 more votes to show rating
add to favorites
×
Save as Personal and add changes to this tab that will be seen only by you. Learn more ›
×
You can save this tab as Personal to edit and correct it or add notes. All changes will be seen only by you. Learn more »
launch autoscroll
font size
0
reset
how to read this tab
guitar tuner
edit
Autoscroll
slow
fast
+/-
esc
set tempo
stop
Standard Tuning

This tab includes the electric guitar parts

[Intro]
    Am            
e|--0------0-------------------------------------|
B|----1------1-----------------------------------|
G|------2------2---------------------------------|
D|-----------------------------------------------|
A|-----------------------------------------------|
E|-----------------------------------------------|

[Verse 1]
    C            Am            
e|--0------0------0------0-----------------------|
B|----1------1------1------1---------------------|
G|------0------0------2------2-------------------|
D|-----------------------------------------------|
A|-----------------------------------------------|
E|-----------------------------------------------|
          Wanted to get away, thought I could find a place
  Where everything would just make sense

[Verse 2]
    C            Am            
e|--0------0------0------0-----------------------|
B|----1------1------1------1---------------------|
G|------0------0------2------2-------------------|
D|-----------------------------------------------|
A|-----------------------------------------------|
E|-----------------------------------------------|
          Wanted to see the light, thought I could find the fight
  In me to get me through my day

[Pre-Chorus]
    Am
e|------------0-----------0----------------------|
B|----1---1-------1---1--------------------------|
G|--2---2---2---2---2---2------------------------|
D|-----------------------------------------------|
A|-----------------------------------------------|
E|-----------------------------------------------|
   Oh, the ocean is 

    Am
e|------------0-----------0----------------------|
B|----1---1-------1---1-------1------------------|
G|--2---2---2---2---2---2---2---2----------------|
D|-----------------------------------------------|
A|-----------------------------------------------|
E|-----------------------------------------------|
    Breaking me apart

    F
e|------------3-----------3----------------------|
B|----1---1-------1---1--------------------------|
G|--2---2---2---2---2---2------------------------|
D|-----------------------------------------------|
A|-----------------------------------------------|
E|-----------------------------------------------|

    F
e|------------3-----------3----------------------|
B|----1---1-------1---1-------1------------------|
G|--2---2---2---2---2---2---2---2----------------|
D|-----------------------------------------------|
A|-----------------------------------------------|
E|-----------------------------------------------|

    Am
e|------------0-----------0----------------------|
B|----1---1-------1---1--------------------------|
G|--2---2---2---2---2---2------------------------|
D|-----------------------------------------------|
A|-----------------------------------------------|
E|-----------------------------------------------|
    In darkness fighting just to 

    Am
e|------------0-----------0----------------------|
B|----1---1-------1---1-------1------------------|
G|--2---2---2---2---2---2---2---2----------------|
D|-----------------------------------------------|
A|-----------------------------------------------|
E|-----------------------------------------------|
    Swim, how can I hold my heart

    F
e|------------3-----------3----------------------|
B|----1---1-------1---1--------------------------|
G|--2---2---2---2---2---2------------------------|
D|-----------------------------------------------|
A|-----------------------------------------------|
E|-----------------------------------------------|

    F
e|------------3----------------------------------| 
B|----1---1--------------------------------------|
G|--2---2---2------------------------------------|
D|-----------------------------------------------|
A|-----------------------------------------------|
E|-----------------------------------------------|

[Chorus 1]
    Am
e|--------0-----0-----0--------------------------|
B|----1-----1-----1-----1------------------------|
G|--2---2-----2-----2-----2----------------------|
D|-----------------------------------------------|
A|-----------------------------------------------|
E|-----------------------------------------------|
   When will I learn, when will I learn

    Am
e|--------0-----0-----0--------------------------|
B|----1-----1-----1-----1------------------------|
G|--2---2-----2-----2-----2----------------------|
D|-----------------------------------------------|
A|-----------------------------------------------|
E|-----------------------------------------------|
    When will I learn

    F
e|--------1-----1-----1--------------------------|
B|----1-----1-----1-----1------------------------|
G|--2---2-----2-----2-----2----------------------|
D|-----------------------------------------------|
A|-----------------------------------------------|
E|-----------------------------------------------|

    Am
e|--1p0-----0-----0-----0------------------------|
B|------1-----1-----1-----1----------------------|
G|--2-----2-----2-----2-----2--------------------|
D|-----------------------------------------------|
A|-----------------------------------------------|
E|-----------------------------------------------|

[Verse 3]
    C            Am            
e|--0------0------0------0-----------------------|
B|----1------1------1------1---------------------|
G|------0------0------2------2-------------------|
D|-----------------------------------------------|
A|-----------------------------------------------|
E|-----------------------------------------------|
          I tried to have a voice, knowing that it’s my choice
   Whether I’ll ever break away

[Verse 3]
    C            Am            
e|--0------0------0------0-----------------------|
B|----1------1------1------1---------------------|
G|------0------0------2------2-------------------|
D|-----------------------------------------------|
A|-----------------------------------------------|
E|-----------------------------------------------|
         Maybe it’s just pretend, but I will try again
   Until I’m happy in my space

[Pre-Chorus]
    Am
e|------------0-----------0----------------------|
B|----1---1-------1---1--------------------------|
G|--2---2---2---2---2---2------------------------|
D|-----------------------------------------------|
A|-----------------------------------------------|
E|-----------------------------------------------|
    Oh the mountain is 

    Am
e|------------0-----------0----------------------|
B|----1---1-------1---1-------1------------------|
G|--2---2---2---2---2---2---2---2----------------|
D|-----------------------------------------------|
A|-----------------------------------------------|
E|-----------------------------------------------|
    Crumbling from all sides

    F
e|------------3-----------3----------------------|
B|----1---1-------1---1--------------------------|
G|--2---2---2---2---2---2------------------------|
D|-----------------------------------------------|
A|-----------------------------------------------|
E|-----------------------------------------------|

    F
e|------------3-----------3----------------------|
B|----1---1-------1---1-------1------------------|
G|--2---2---2---2---2---2---2---2----------------|
D|-----------------------------------------------|
A|-----------------------------------------------|
E|-----------------------------------------------|

    Am
e|------------0-----------0----------------------|
B|----1---1-------1---1--------------------------|
G|--2---2---2---2---2---2------------------------|
D|-----------------------------------------------|
A|-----------------------------------------------|
E|-----------------------------------------------|
    Frozen, I could try to

    Am
e|------------0-----------0----------------------|
B|----1---1-------1---1-------1------------------|
G|--2---2---2---2---2---2---2---2----------------|
D|-----------------------------------------------|
A|-----------------------------------------------|
E|-----------------------------------------------|
    Run or I could close my eyes

    F
e|------------3-----------3----------------------|
B|----1---1-------1---1--------------------------|
G|--2---2---2---2---2---2------------------------|
D|-----------------------------------------------|
A|-----------------------------------------------|
E|-----------------------------------------------|

    F
e|------------3----------------------------------| 
B|----1---1--------------------------------------|
G|--2---2---2------------------------------------|
D|-----------------------------------------------|
A|-----------------------------------------------|
E|-----------------------------------------------|

[Chorus 2]
    Am
e|--------0-----0-----0--------------------------|
B|----1-----1-----1-----1------------------------|
G|--2---2-----2-----2-----2----------------------|
D|-----------------------------------------------|
A|-----------------------------------------------|
E|-----------------------------------------------|
   When will I learn, when will I learn

    Am
e|--------0-----0-----0--------------------------|
B|----1-----1-----1-----1------------------------|
G|--2---2-----2-----2-----2----------------------|
D|-----------------------------------------------|
A|-----------------------------------------------|
E|-----------------------------------------------|
    When will I learn

    F
e|--------1-----1-----1--------------------------|
B|----1-----1-----1-----1------------------------|
G|--2---2-----2-----2-----2----------------------|
D|-----------------------------------------------|
A|-----------------------------------------------|
E|-----------------------------------------------|

    Am
e|--1p0-----0-----0-----0------------------------|
B|------1-----1-----1-----1----------------------|
G|--2-----2-----2-----2-----2--------------------|
D|-----------------------------------------------|
A|-----------------------------------------------|
E|-----------------------------------------------|

    Am
e|--------0-----0-----0--------------------------|
B|----1-----1-----1-----1------------------------|
G|--2---2-----2-----2-----2----------------------|
D|-----------------------------------------------|
A|-----------------------------------------------|
E|-----------------------------------------------|
   When will I learn, when will I learn

    Am
e|--------0-----0-----0--------------------------|
B|----1-----1-----1-----1------------------------|
G|--2---2-----2-----2-----2----------------------|
D|-----------------------------------------------|
A|-----------------------------------------------|
E|-----------------------------------------------|
    When will I learn

    F
e|--------1-----1-----1--------------------------|
B|----1-----1-----1-----1------------------------|
G|--2---2-----2-----2-----2----------------------|
D|-----------------------------------------------|
A|-----------------------------------------------|
E|-----------------------------------------------|

    Am
e|--1p0-----0-----0-----0------------------------|
B|------1-----1-----1-----1----------------------|
G|--2-----2-----2-----2-----2--------------------|
D|-----------------------------------------------|
A|-----------------------------------------------|
E|-----------------------------------------------|

    Am
e|--------0-----0-----0--------------------------|
B|----1-----1-----1-----1------------------------|
G|--2---2-----2-----2-----2----------------------|
D|-----------------------------------------------|
A|-----------------------------------------------|
E|-----------------------------------------------|
   When will I learn, when will I learn

    Am
e|--------0-----0-----0--------------------------|
B|----1-----1-----1-----1------------------------|
G|--2---2-----2-----2-----2----------------------|
D|-----------------------------------------------|
A|-----------------------------------------------|
E|-----------------------------------------------|
    When will I learn

    F
e|--------1-----1-----1--------------------------|
B|----1-----1-----1-----1------------------------|
G|--2---2-----2-----2-----2----------------------|
D|-----------------------------------------------|
A|-----------------------------------------------|
E|-----------------------------------------------|

    Am
e|--1p0-----0-----0-----0------------------------|
B|------1-----1-----1-----1----------------------|
G|--2-----2-----2-----2-----2--------------------|
D|-----------------------------------------------|
A|-----------------------------------------------|
E|-----------------------------------------------|

***********************************

| h   Hammer-on

***********************************

            
            
Suggest correction
Creating personal tab
Creating personal tab
You can edit any tab online and save it as your Personal.

You can edit, replace or remove any tab part or add personal notes – all changes will be seen only by you.

Personal tabs can be accessed anytime from any device, even offline.
Learn more »
Give kudos to tab author, rate the tab!
1 2 3 4 5
comments
print report bad tab
guest
You may want to rate the tab now too:
select rating
Wanna post a correction for this tab? Suggest correction