Oops, an error
Loading. Please wait.

Pangako Bass Tab

version 1
version 1

Whole song

Interactive

1,866 views 9 this week
no commentswrite comment
1 2 3 4 5
please rate
add to favorites
launch autoscroll
font size
0
reset
guitar tuner
Autoscroll
slow
fast
+/-
esc
set tempo
stop
Help us to improve Ultimate-Guitar.com Take our survey!
×
Author
Pangako
Kindred Garden
Tabbed by: avill616@yahoo.com

Intro                  Verse1 
G|----------------|    |----------------|
D|----------------|    |----------------|          repeat intro
A|-----2~--3~--5~-|2x  |-----2~--3~--5~-|2x        repeat verse
E|-3~-------------|    |-3~-------------|

Chorus                           Adlib   
G|-------------------------|     |-------------------------|
D|-------------------------|     |-------------------------|
A|-----5~---8~--7~------5~-|2x   |-----5~---8~--7~------5~-|
E|-3~---------------8~-----|     |-3~---------------8~-----|

Instrumental 
G|-------------------------|
D|-------------------------|
A|-----2~--3~---5\--3\--2\-|
E|-3~----------------------|

Verse2
G|-----------------------------------------|
D|-----------------------------------------|
A|--------2--0-2--2-3--3-3--3-5--0-5-5--5\-|
E|-3---0-3---------------------------------|

G|---------------------------------------7---|
D|------------------------------------7---5\-|
A|--------2--0-2-2--2-3--3-3--3-5--5-5-------|
E|-3---0-3-----------------------------------|

Chorus2 
G|-----------------------------------------7---|
D|--------------------------------------7---5\-|
A|----5--5-7-8--8-7--7---------5--5-5--5-------|
E|-3------------------8--8-8--8----------------|

Adlib 
G|-----------------------------------------------7---|
D|--------------------------------------------7---5\-|
A|-----0-5--5-7-8--8-7--7--------5--5-7-5--0-5-------|
E|-3--3------------------8--8-8----------------------|

Chorus3
G|-----------------------------------------7---|
D|--------------------------------------7---5\-|
A|----5--5-7-8--8-7--7---------5--5-5--5-------|
E|-3------------------8--8-8--8----------------|

G|----------------------------|
D|----------------------------|
A|-----0-5--5-7-8--8-7--7---5-|
E|-3--3------------------8----|
Suggest correction
What's this?
You can suggest a correction to this tab. Community and Mods will review your correction and vote to approve or reject it.
comments
We did not receive enough feedback on this tab! Please rate:
print report bad tab
1 2 3 4 5
guest
You may want to rate the tab now too:
select rating
Please do not post tabs as comments. Select "correction" instead!