Oops, an error
Loading. Please wait.

Forever Reeling Tab

version 2
version 2

Whole song

25 views 1 this week
no commentswrite comment
1 2 3 4 5
please rate
add to favorites
launch autoscroll
font size
0
reset
how to read this tab
guitar tuner
Autoscroll
slow
fast
+/-
esc
set tempo
stop
Help us to improve Ultimate-Guitar.com Take our survey!
×
Author
Forever Reeling

From Dave Curtis sonicboombox@yahoo.com


Intro:
e------------------------------------------------------|
B------------------------------------------------------|
G------------------------------------------------------|
D---6-6-6--6-6-6--6-6-6--------6-6-6---6-6-6---6-6-6---|
A-7----------------------5---------------------------5-|
E----------------------------0-------------------------| x2
Guitar 1

e------------------------------------------------------|
B------------------------------------------x-x-x-x-x---|
G------------------------------------------x-x-x-x-x-7-|
D------------------------------------------x-x-x-x-x-7-|
A------------------------------------------x-x-x-x-x-5-|
E------------------------------------------x-x-x-x-x---|
Guitar 2 (only played second time)

e---------------------------------------------------|
B---------------------------------------------------|
G---------------------------------------------------|
D---6-6-6--6-6-6--6-6-6-------9-9-9--9-9-9--9-9-5-7-|
A------------------------5--------------------------|
E-0-------------------------0-----------------------| x2
Guitar 1

Guitar 2 plays E5 and A5 over the riff

Then:
e-----------------------------|
B-9---9---9---9---8---8---17/-|
G---9---9---9---9---9---9-----|
D-----------------------------|
A-----------------------------|
E-----------------------------|

Verses:
e---------------------------------------------------------|
B---9---9---9---9---9---9---8---8---8------13----13----13-|
G-9---9---9---9---9---9---9---9---9---9-14----14----14----|
D---------------------------------------------------------|
A---------------------------------------------------------|
E---------------------------------------------------------|

Then before the chorus:
e----------------------------------------------------------|
B----------------------------------------------------------|
G----------------------------------------------------------|
D---6-6-6--6-6-6--6-6-6-------6-6-6--6-6--7-7-7-7--9-9-9-9-|
A------------------------5---------------------------------|
E---------------------------0------------------------------|
Guitar 1

Chorus:

C5,B5,E5,A5 x2

Then

C5       D#5
Aaaaaaawwwwww

Solo w/flanger:
e------------------------------------------------------|
B------------------------------------------------------|
G------------------------------------------------------|
D---6-6-6--6-6-6--6-6-6--------6-6-6---6-6-6---6-6-6---|
A-7----------------------5---------------------------5-|
E----------------------------0-------------------------| x2

e------------------------------------------------------------------|
B------------------------------------------------------------------|
G------------------------------------------------------------------|
D---6-6-6--7-7-7--9-9-9--7-6--7-10-10-10--12-12-12--14-14-14-12-10-|
A-7----------------------------------------------------------------|
E------------------------------------------------------------------| x2
Suggest correction
Give kudos to tab author, rate the tab!
1 2 3 4 5
comments
print report bad tab
guest
You may want to rate the tab now too:
select rating
Please do not post tabs as comments. Select "correction" instead!