Oops, an error
Loading. Please wait.

Lady Percy Tab

version 1
version 1

Acoustic

1,853 views 3 this week
1 commentread comment
1 2 3 4 5
1 last vote to show rating
add to favorites
launch autoscroll
font size
0
reset
how to read this tab
guitar tuner
Autoscroll
slow
fast
+/-
esc
set tempo
stop
Help us to improve Ultimate-Guitar.com Take our survey!
×
Author
Difficulty
Tuning
intermediate
D# G# C# F# A# D#
-----------------------------------------------------------------------------
                           Lady Percy - King Charles
                                   Acoustic
-----------------------------------------------------------------------------
Tabbed by: Mark Patterson
E-mail: mepcody@Yahoo.com

Tuning: Half Step Down from Standard
         
                    This Is The Acoustic Version!

                                Before you play,
                              Head over to YouTube 
                              to check the video of
                               King Charles Playing 
                                    This Song!
                              Leave a comment Saying
                    Ultimate Guitar has the tabs for the song! :D

                       I'll be uploading a video showing 
                          how to play this song on my 
                           YouTube Channel, Stride278!

Intro

e|------------------------------------------------------------|
B|------------------------------------------------------------|
G|---12---14---16~-14-12------11---14---16--14-11-------------|
D|-12---12---12----------12-12---12---12----------12----------|
A|------------------------------------------------------------|
E|------------------------------------------------------------|

e|-------------------------------------------------------|
B|-----------------------------------------13--13p12-----|
G|----12---12---16-14-11---------12---12-----12-----14---|
D|-14---14---14----------14------------------------------|
A|----------------------------15---15---15---------------|
E|-------------------------------------------------------|

e|------------------------------------------------------------|
B|------------------------------------------------------------|
G|---12---14---16~-14-12------11---14---14/16--14-11h14p11----|
D|-12---12---12----------12-12---12---12-------------------12-|
A|------------------------------------------------------------|
E|------------------------------------------------------------|

e|-------------------------------------------------------|
B|-----------------------------------------13--13p12-----|
G|----12---12---16-14-11---------12---12-----12-----14---|
D|-14---14---14----------14------------------------------|
A|----------------------------15---15---15---------------|
E|-------------------------------------------------------|

1st Verse

   If you'd agree to be my love, I'd build you a world to fit like a glove, 
e|--------------------------------------------------------------------------|
B|-12~----------------------------------------------------------------------|
G|-12~---------------------------11~----------------------------------------|
D|-12~---------------------------12~----------------------------------------|
A|--------------------------------------------------------------------------|
E|--------------------------------------------------------------------------|

   And there you would rule and be queen, A world with no cry-ing. 
e|--------------------------------------------------------------------------|
B|-12~------------------------------------13~-------------13---12-----------|
G|-12~------------------------------------12~-------------12---12-----------|
D|-14~------------------------------------14~-------------14---12-----------|
A|----------------------------------------15~-------------15----------------|
E|--------------------------------------------------------------------------|

   Bathe in the waters warm by stone, Shot with love from volcanoes,  
e|--------------------------------------------------------------------------|
B|-12~----------------------------------------------------------------------|
G|-12~---------------------------11~----------------------------------------|
D|-12~---------------------------12~----------------------------------------|
A|--------------------------------------------------------------------------|
E|--------------------------------------------------------------------------|

   Drawn by a chariot, pulled by man, And view the ocean, gaily laughing. 
e|--------------------------------------------------------------------------|
B|-12~------------------------------------13~-------------13----12----------|
G|-12~------------------------------------12~-------------12----12----------|
D|-14~------------------------------------14~-------------14----12----------|
A|----------------------------------------15~-------------15----------------|
E|--------------------------------------------------------------------------|

   Seahorses ride ahead in formation, Lady in waiting with the information, 
e|------------------------------------------------------------|
B|------------------------------------------------------------|
G|---12---14---16~-14-12------11---14---16--14-11-------------|
D|-12---12---12----------12-12---12---12----------12----------|
A|------------------------------------------------------------|
E|------------------------------------------------------------|

Dolphin race, spread word on the tide, That you were coming like heavens light. 
e|----------------------------------------------------|
B|----------------------------------------------------|
G|----12---12---16-14-11---------12---12---12-12-11---|
D|-14---14---14----------14---14---14---14------------|
A|----------------------------------------------------|
E|----------------------------------------------------|

Chorus

Oh, I know,
Lady Percy will never come to my show,
e|---------10----10-8------8---8---8-----10-10-----|
B|-12--12--10-12-10-8------8---8---8--12-10-10-----|
G|-12--12--11-12-11-9------9---9---9--12-11-11-----|
D|-12--12--12-12-12-10-----10--10--10-12-12-12-----|
A|-------------------------------------------------|
E|-------------------------------------------------|

Up in the highlands, racing cars,
Building guns and breaking hearts. 
e|---------10----10-8------8---8-----10-10---------|
B|-12--12--10-12-10-8------8---8--12-10-10-12------|
G|-12--12--11-12-11-9------9---9--12-11-11-12------|
D|-12--12--12-12-12-10-----10--10-12-12-12-12------|
A|-------------------------------------------------|
E|-------------------------------------------------|

Oh, I know,
Lady Percy will never come to my show, 
e|---------10----10-8------8---8---8-----10-10-----|
B|-12--12--10-12-10-8------8---8---8--12-10-10-----|
G|-12--12--11-12-11-9------9---9---9--12-11-11-----|
D|-12--12--12-12-12-10-----10--10--10-12-12-12-----|
A|-------------------------------------------------|
E|-------------------------------------------------|

Up in the highlands, racing cars,
Building guns and breaking hearts. 
e|---------10----10-8------8---8-----10-10---------|
B|-12--12--10-12-10-8------8---8--12-10-10-12------|
G|-12--12--11-12-11-9------9---9--12-11-11-12------|
D|-12--12--12-12-12-10-----10--10-12-12-12-12------|
A|-------------------------------------------------|
E|-------------------------------------------------|

Bridge
(x means to stop right after note is played)
e|-------------------15------------|
B|-------------15-17----17~-15-----|
G|-12x-14/16x------------------14--|  3X's
D|-12x-----------------------------|
A|---------------------------------|
E|---------------------------------|

e|---------------------------------|
B|---------------------------------|
G|-12x-14/16x--14/16-14-12---------|  1x
D|-12x-----------------------------|
A|---------------------------------|
E|---------------------------------|

2nd Verse

Every time I see that you're walking by,
I look at you with my eagle eye, 
e|------------------------------------------------------------|
B|------------------------------------------------------------|
G|---12---14---16~-14-12------11---14---16--14-11-------------|
D|-12---12---12----------12-12---12---12----------12----------|
A|------------------------------------------------------------|
E|------------------------------------------------------------|

And I know that you're the girl,
That's meant for, that's meant for me. 
e|-------------------------------------------------------|
B|-----------------------------------------13--13p12-----|
G|----12---12---16-14-11---------12---12-----12-----14---|
D|-14---14---14----------14------------------------------|
A|----------------------------15---15---15---------------|
E|-------------------------------------------------------|

Oh how can I, how can I make you see,
If I make you love me, it's make believe, 
e|------------------------------------------------------------|
B|------------------------------------------------------------|
G|---12---14---16~-14-12------11---14---16--14-11-------------|
D|-12---12---12----------12-12---12---12----------12----------|
A|------------------------------------------------------------|
E|------------------------------------------------------------|

And like I believe in you,
I want you to believe in me. 
e|-------------------------------------------------------|
B|-----------------------------------------13--13p12-----|
G|----12---12---16-14-11---------12---12-----12-----14---|
D|-14---14---14----------14------------------------------|
A|----------------------------15---15---15---------------|
E|-------------------------------------------------------|

Chorus

Oh, I know,
Lady Percy will never come to my show,
e|---------10----10-8------8---8---8-----10-10-----|
B|-12--12--10-12-10-8------8---8---8--12-10-10-----|
G|-12--12--11-12-11-9------9---9---9--12-11-11-----|
D|-12--12--12-12-12-10-----10--10--10-12-12-12-----|
A|-------------------------------------------------|
E|-------------------------------------------------|

Up in the highlands, racing cars,
Building guns and breaking hearts. 
e|---------10----10-8------8---8-----10-10---------|
B|-12--12--10-12-10-8------8---8--12-10-10-12------|
G|-12--12--11-12-11-9------9---9--12-11-11-12------|
D|-12--12--12-12-12-10-----10--10-12-12-12-12------|
A|-------------------------------------------------|
E|-------------------------------------------------|

Oh, I know,
Lady Percy will never come to my show, 
e|---------10----10-8------8---8---8-----10-10-----|
B|-12--12--10-12-10-8------8---8---8--12-10-10-----|
G|-12--12--11-12-11-9------9---9---9--12-11-11-----|
D|-12--12--12-12-12-10-----10--10--10-12-12-12-----|
A|-------------------------------------------------|
E|-------------------------------------------------|

Up in the highlands, racing cars, 
Building guns and breaking hearts. 
e|---------10----10-8------8---8-----10-10---------|
B|-12--12--10-12-10-8------8---8--12-10-10-12------|
G|-12--12--11-12-11-9------9---9--12-11-11-12------|
D|-12--12--12-12-12-10-----10--10-12-12-12-12------|
A|-------------------------------------------------|
E|-------------------------------------------------|

Bridge
(* means to stop right after note is played)
e|-------------------15------------|
B|-------------15-17----17~-15-----|
G|-12x-14/16x------------------14--|  3X's
D|-12x-----------------------------|
A|---------------------------------|
E|---------------------------------|

e|-------------------------------------|
B|-------------------------------------|
G|-12x-14/16x--14/16~-16-14-16-14-12---|  1x
D|-12x---------------------------------|
A|-------------------------------------|
E|-------------------------------------|

Verse 3 (odd timing strum)

   Raging fires, beech my soul,  
e|--------------------------------------X-8--8~--8x-----X-10--10~----10x--|
B|-X-12-12~--12x-----X-12-12~--12x------X-8--8~--8x-----X-10--10~----10x--|
G|-X-12-12~--12x-----X-12-12~--12x------X-9--9~--9x-----X-11--11~----11x--|
D|-X-12-12~--12x-----X-12-12~--12x------X-10-10--10x----X-12--12~----12x--|
A|------------------------------------------------------------------------|
E|------------------------------------------------------------------------|

   The water of life is drying out slow,
e|--------------------------------------X-8--8~--8x-----X-10--10~----10x--|
B|-X-12-12~--12x-----X-12-12~--12x------X-8--8~--8x-----X-10--10~----10x--|
G|-X-12-12~--12x-----X-12-12~--12x------X-9--9~--9x-----X-11--11~----11x--|
D|-X-12-12~--12x-----X-12-12~--12x------X-10-10--10x----X-12--12~----12x--|
A|------------------------------------------------------------------------|
E|------------------------------------------------------------------------|
  
   My soul is burning fiery red,
e|--------------------------------------X-8--8~--8x-----X-10--10~----10x--|
B|-X-12-12~--12x-----X-12-12~--12x------X-8--8~--8x-----X-10--10~----10x--|
G|-X-12-12~--12x-----X-12-12~--12x------X-9--9~--9x-----X-11--11~----11x--|
D|-X-12-12~--12x-----X-12-12~--12x------X-10-10--10x----X-12--12~----12x--|
A|------------------------------------------------------------------------|
E|------------------------------------------------------------------------|

   Oh take me now, lest I be dead.
e|--------------------------------------8~----------------10~----|
B|-X-12-12~--12x-----X-12-12~--12x------8~----------------10~----|
G|-X-12-12~--12x-----X-12-12~--12x------9~----------------11~----|
D|-X-12-12~--12x-----X-12-12~--12x------10~---------------12~----|
A|---------------------------------------------------------------|
E|---------------------------------------------------------------|

Intro Verse 4

e|------------------------------------------------------------|
B|------------------------------------------------------------|
G|---12---14---16~-14-12------11---14---16--14-11-------------|
D|-12---12---12----------12-12---12---12----------12----------|
A|------------------------------------------------------------|
E|------------------------------------------------------------|

e|-------------------------------------------------------|
B|-----------------------------------------13--13p12-----|
G|----12---12---16-14-11---------12---12-----12-----14---|
D|-14---14---14----------14------------------------------|
A|----------------------------15---15---15---------------|
E|-------------------------------------------------------|

Every time I see that you're walking by,
I look at you with my eagle eye, 
e|------------------------------------------------------------|
B|------------------------------------------------------------|
G|---12---14---16~-14-12------11---14---16--14-11-------------|
D|-12---12---12----------12-12---12---12----------12----------|
A|------------------------------------------------------------|
E|------------------------------------------------------------|

And I know that you're the girl,
That's meant for, that's meant for me. 
e|-------------------------------------------------------|
B|-----------------------------------------13--13p12-----|
G|----12---12---16-14-11---------12---12-----12-----14---|
D|-14---14---14----------14------------------------------|
A|----------------------------15---15---15---------------|
E|-------------------------------------------------------|

Oh how can I, how can I make you see,
If I make you love me, it's make believe, 
e|------------------------------------------------------------|
B|------------------------------------------------------------|
G|---12---14---16~-14-12------11---14---16--14-11-------------|
D|-12---12---12----------12-12---12---12----------12----------|
A|------------------------------------------------------------|
E|------------------------------------------------------------|

And like I believe in you,
I want you to believe in me. 
e|-------------------------------------------------------|
B|-----------------------------------------13--13p12-----|
G|----12---12---16-14-11---------12---12-----12-----14---|
D|-14---14---14----------14------------------------------|
A|----------------------------15---15---15---------------|
E|-------------------------------------------------------|

Chorus

Oh, I know,
Lady Percy will never come to my show,
e|---------10----10-8------8---8---8-----10-10-----|
B|-12--12--10-12-10-8------8---8---8--12-10-10-----|
G|-12--12--11-12-11-9------9---9---9--12-11-11-----|
D|-12--12--12-12-12-10-----10--10--10-12-12-12-----|
A|-------------------------------------------------|
E|-------------------------------------------------|

Up in the highlands, racing cars,
Building guns and breaking hearts. 
e|---------10----10-8------8---8-----10-10---------|
B|-12--12--10-12-10-8------8---8--12-10-10-12------|
G|-12--12--11-12-11-9------9---9--12-11-11-12------|
D|-12--12--12-12-12-10-----10--10-12-12-12-12------|
A|-------------------------------------------------|
E|-------------------------------------------------|

Oh, I know,
Lady Percy will never come to my show, 
e|---------10----10-8------8---8---8-----10-10-----|
B|-12--12--10-12-10-8------8---8---8--12-10-10-----|
G|-12--12--11-12-11-9------9---9---9--12-11-11-----|
D|-12--12--12-12-12-10-----10--10--10-12-12-12-----|
A|-------------------------------------------------|
E|-------------------------------------------------|

Up in the highlands, racing cars, 
Building guns and breaking hearts. 
e|---------10----10-8------8---8-----10-10---------|
B|-12--12--10-12-10-8------8---8--12-10-10-12------|
G|-12--12--11-12-11-9------9---9--12-11-11-12------|
D|-12--12--12-12-12-10-----10--10-12-12-12-12------|
A|-------------------------------------------------|
E|-------------------------------------------------|


Ending Chorus

Oh, Lady Percy, 
e|---------10----10-8------8---8---8-----10-10-----|
B|-12--12--10-12-10-8------8---8---8--12-10-10-----|
G|-12--12--11-12-11-9------9---9---9--12-11-11-----|
D|-12--12--12-12-12-10-----10--10--10-12-12-12-----|
A|-------------------------------------------------|
E|-------------------------------------------------|

Oh, Lady Percy, take me higher. 
e|---------10----10-8------8---8-----10-10---------|
B|-12--12--10-12-10-8------8---8--12-10-10-12------|
G|-12--12--11-12-11-9------9---9--12-11-11-12------|
D|-12--12--12-12-12-10-----10--10-12-12-12-12------|
A|-------------------------------------------------|
E|-------------------------------------------------|

Oh, Lady Percy, 
e|---------10----10-8------8---8---8-----10-10-----|
B|-12--12--10-12-10-8------8---8---8--12-10-10-----|
G|-12--12--11-12-11-9------9---9---9--12-11-11-----|
D|-12--12--12-12-12-10-----10--10--10-12-12-12-----|
A|-------------------------------------------------|
E|-------------------------------------------------|

Oh, Lady Percy, take me higher.
e|---------10----10-8------8~~---------------------|
B|-12--12--10-12-10-8------8~~----12~~-------------|
G|-12--12--11-12-11-9------9~~----12~~-------------|
D|-12--12--12-12-12-10-----10~----12~~-------------|
A|-------------------------------------------------|
E|-------------------------------------------------|

************************************

| h   hammer-on
| p   pull-off
| ~   vibrato
| x   Mute note

************************************
Suggest correction
Give kudos to tab author, rate the tab!
1 2 3 4 5
comments
print report bad tab
1 comment total.
0 reply
taung.lin 10 May 28, 2014 03:14 AM

So awesome ^_^

guest
You may want to rate the tab now too:
select rating
Wanna post a correction for this tab? Suggest correction