Oops, an error
Loading. Please wait.

Lady Percy Tab

version 1
version 1

Intro

6,217 views 1 this week
no commentswrite comment
1 2 3 4 5
1 last vote to show rating
add to favorites
launch autoscroll
font size
0
reset
how to read this tab
guitar tuner
Autoscroll
slow
fast
+/-
esc
set tempo
stop
Help us to improve Ultimate-Guitar.com Take our survey!
×
Author
Difficulty
novice
-------------------------------------------------------------------------------
                             Lady Percy - King Charles
-------------------------------------------------------------------------------
Tabbed by: JV

Tuning:Standard

e|----------------------------------------------------------------------------|
B|----------------------------------------------------------------------------|
G|----11---13---15-13-11---------10----13--15--13--10---------11----13----15--|
D|--11--11---11----------11---11----11----------------11---13----13----13-----|
A|----------------------------------------------------------------------------|
E|----------------------------------------------------------------------------|

e|------------------------------------------------------------|
B|------------------------------------------------------------|
G|--13--11------------11--------16h--16--15--13---------------|
D|---------13-----13-----13-------------------------------x2--|
A|-------------14-----------14--------------------------------|
E|------------------------------------------------------------|


************************************

| /   slide up
| \   slide down
| h   hammer-on
| p   pull-off
| ~   vibrato
| +   harmonic
| x   Mute note
| b   Bend
| pb  Pre-bend
| br  Bend release
| pbr Pre-bend release
| brb Bend release bend

************************************
Suggest correction
Give kudos to tab author, rate the tab!
1 2 3 4 5
comments
print report bad tab
guest
You may want to rate the tab now too:
select rating
Wanna post a correction for this tab? Suggest correction